Cifra Club

Prayers For Rain

The Cure

Tablatura: Principal (guitarra)
Tom: D
Standard Tuning (Eadgbe) 
 
This is an awesome song by The Cure and it's very simple to play. 
 
Main Riff 
|----------------------| 
|----------------------| 
|----------------------| 
|----2---2-----0---0---| 
|--00-0-0-0--33-3-3-3--| 
|----------------------| 
Another guitar overlays this part with something similar.  It occassionally adds an A on the G string if you want to play it as well. 
 
Riff 2 
|-------------------------| 
|--8-8-8-10--10--10--(10)-| 
|-9-9-9-------------------| 
|-------------------------| 
|-------------------------| 
|-------------------------| 
The last A note is only played at certain parts of the song. 
 
Fill 1 
|-7----------------| 
|----10----8-------| 
|-------------10-9-| 
|------------------| 
|------------------| 
|------------------| 
This is sometimes added onto Riff 2.
reproducciones 122
Acordes para:

    0 comentarios

    mostrar más comentarios

    ¿Conseguiste tocar?

    0 tocaron 0 aún no

    ¡Graba un vídeo tocando Prayers For Rain y envianoslo!

    00:00 / 00:00
    outros vídeos desta música
    repetir qualidade Automático
    Outros vídeos desta música
    00:00 / 00:00
    Automático
    OK