Cifra Club

Subway Song

The Cure

Tablatura: Principal (guitarra)
Tom: G#
Guitar : 

The guitar appears only on two or three parts of the song and plays this : 

e|-4-4-4-3-3-3-1-1-1---1--- 
B|-------------------4----- 
G|------------------------- 
D|------------------------- 
A|------------------------- 
E|------------------------- 
  

Bass : 

The bass plays two parts (listen to the song to find out where) 
  

Part 1 : 

G|----------------------------------- 
D|---------------6------------------- 
A|-6-8---8---6-8--------------------- 
E|-------------------9---9-9---9-8--- 
  

Part 2 : 

G|----------------------------------- 
D|----------------------------------- 
A|----------------4------------------ 
E|-4-6---6----4-6-----222222444444--- 
  

Midnight in the subway 
She's on her way home 
She tries hard not to run 
But she feels she's not alone 
Echoes of footsteps 
Follow close behind 
But she dare not turn around... 

Turn around...
reproducciones 72
Acordes para:

    0 comentarios

    mostrar más comentarios

    ¿Conseguiste tocar?

    1 tocaron 0 aún no

    ¡Graba un vídeo tocando Subway Song y envianoslo!

    00:00 / 00:00
    outros vídeos desta música
    repetir qualidade Automático
    Outros vídeos desta música
    00:00 / 00:00
    Automático
    OK