Cifra Club

Trust

The Cure

Tablatura: Principal (guitarra)
Tom: D
        Bm                  D                  G       D
There's no-one left in the world that I can hold onto
There is really no-one left at all, there is only you
And if you leave me now, you leave all that we were undone
There is really no-one left, you are the only one

       F#m             G                  D                Bm
And still the hardest part for you to put your trust in me
       F#m             G                  D                A     
I love you more than I can say. Why won't you just believe?

TAB:

|---------------------|---------------------|------------------------| 
|---------------------|---------------------|------------------1-----| 
|--2---------------2--|----------3---2------|--2---3---2---3---------| 
|------3---0---3------|--0---3---3-------3--|------0-----------------| 
|----------0----------|----------1----------|------------------------| 
|---------------------|---------(1)---------|------------------------| 


                      x2
|---------------------|        |-----------------------------------|
|---------------------|        |------1----------------------------|
|--3---2---3---2------|        |----------3---2---3---2------------|
|----------0-------3--|        |--3-----------------------3---3----|
|---------------------|        |------1---------------5------------|
|---------------------|        |-----------------------------------|


|-------------------------------------|-----------------------------|
|-------------------------------------|------1----------------------|
|------2-----------2-------3----------|----------3---2---3---2------|
|--3-------3-----------3---3---3------|--3------------------3---3---|
|--------------3-----------5-------5--|------1---------------5------|
|-------------------------------------|-----------------------------|

|-------------------------------------------------------------------|
|-------------------------------------------------------------------|
|------2-----------0------------------------------------------------|
|--3-------3--------------------------------------------------------|
|--------------3----------------------------------------------------|
|-------------------------------------------------------------------|
reproducciones 377
Acordes para:

    0 comentarios

    mostrar más comentarios

    ¿Conseguiste tocar?

    2 tocaron 0 aún no

    ¡Graba un vídeo tocando Trust y envianoslo!

    00:00 / 00:00
    outros vídeos desta música
    repetir qualidade Automático
    Outros vídeos desta música
    00:00 / 00:00
    Automático
    OK