Cifra Club

Black Shuck

The Darkness

Cifrado: Principal (guitarra y guitarra eléctrica)
Selo Cifra Club: esta cifra foi revisada para atender aos critérios oficiais da nossa Equipe de Qualidade.
tono: G
[intro]
e:--------------------------------------3
B:-------------------3--------------3---3
C:-------------------2--------------2-2-0    
D:----------2--------0--------4-----0-2-0    x1
A:---22-222-0-22-222-0-22-222-2-0---0-0-x
E:3^-00-000---00-000---00-000----30-----3

e:-----------------------------------3
B:----------------3--------------3---3
C:----------------2--------------2-2-0    
D:-------2--------0--------4-----0-2-0    x4
A:22-222-0-22-222-0-22-222-2-0---0-0-x
E:00-000---00-000---00-000----30-----3

e:-----------------------------------
B:----------------3--------------3-/-
C:----------------2--------------2-/-  
D:-------2--------0--------4-----0-/-  x1
A:22-222-0-22-222-0-22-222-2-0---0-/-
E:00-000---00-000---00-000----30-----

[verse 1]
e:--------------------------------------------------3----
B:----------------------------------------3-33-3333-3-3/-
G:----------------------------------2--22-0-00-0000-0-2/-
D:2-7-7-75-5-5-5-33-3-0-------------2--22-2-22-2222-0-0/-
A:0--0-0--0-0-0-0----0---0-2----0-0-0--00-0-00-0000-x-0/-
E:---------------------3^----2-3-3------------------3----

e:-----------------------3---------------------------------------3----
B:-----------------------3-3-------------------------------------3-3/-
G:-----------------------0-2-------------------------------------0-2/-
D:-7-7-75-7-5-5-5-3-3-3--0-0-----------2-7--7-5-7-5-7-5---33333--0-0/-
A:0-0-0----0-0-0-0---0-0---0-0-5-5-5-0-0---0-------0-0-0-0-----0---0/-
E:-----------------------3--------------------------------------------

[chorus]
e:--------------------------------------3
B:-------------------3--------------3---3
C:-------------------2--------------2-2-0    
D:----------2--------0--------4-----0-2-0    x1
A:---22-222-0-22-222-0-22-222-2-0---0-0-x
E:3^-00-000---00-000---00-000----30-----3

e:-----------------------------------3
B:----------------3--------------3---3
C:----------------2--------------2-2-0    
D:-------2--------0--------4-----0-2-0    x1
A:22-222-0-22-222-0-22-222-2-0---0-0-x
E:00-000---00-000---00-000----30-----3

[verse 2]
e:--------------------------------------------------3----
B:----------------------------------------3-33-3333-3-3/-
G:----------------------------------2--22-0-00-0000-0-2/-
D:2-7-7-75-5-5-5-33-3-0-------------2--22-2-22-2222-0-0/-
A:0--0-0--0-0-0-0----0---0-2----0-0-0--00-0-00-0000-x-0/-
E:---------------------3^----2-3-3------------------3----

e:-----------------------3---------------------------------------3----
B:-----------------------3-3-------------------------------------3-3/-
G:-----------------------0-2-------------------------------------0-2/-
D:-7-7-75-7-5-5-5-3-3-3--0-0-----------2-7--7-5-7-5-7-5---33333--0-0/-
A:0-0-0----0-0-0-0---0-0---0-0-5-5-5-0-0---0-------0-0-0-0-----0---0/-
E:-----------------------3-----------------------------------------

[chorus]
e:--------------------------------------3
B:-------------------3--------------3---3
C:-------------------2--------------2-2-0    
D:----------2--------0--------4-----0-2-0    x1
A:---22-222-0-22-222-0-22-222-2-0---0-0-x
E:3^-00-000---00-000---00-000----30-----3

e:-----------------------------------3
B:----------------3--------------3---3
C:----------------2--------------2-2-0    
D:-------2--------0--------4-----0-2-0    x1
A:22-222-0-22-222-0-22-222-2-0---0-0-x
E:00-000---00-000---00-000----30-----3

[bridge]
e:----------------------------------------------------------x-
B:---------0---------------3--------------------------------x-
G:----------------------------------------------------------x-
D:-----2------------3---------------------------------------x-
A:-------------------------------------0-----2----------------
E:--------------------------------3----------------2-------3--

[solo] this 1s a bit hard, but ill try n get this l8r]

[chorus3]
e:--------------------------------------3
B:-------------------3--------------3---3
C:-------------------2--------------2-2-0    
D:----------2--------0--------4-----0-2-0    x1
A:---22-222-0-22-222-0-22-222-2-0---0-0-x
E:3^-00-000---00-000---00-000----30-----3

e:-----------------------------------3
B:----------------3--------------3---3
C:----------------2--------------2-2-0    
D:-------2--------0--------4-----0-2-0    x3
A:22-222-0-22-222-0-22-222-2-0---0-0-x
E:00-000---00-000---00-000----30-----3
00:00 / 00:00
Otros videos de esta canción
Repetir
Otros videos de esta canción
3.215 exhibiciones
    • ½ Tono
    • A
    • Bb
    • B
    • C
    • Db
    • D
    • Eb
    • E
    • F
    • F#
    • G
    • Ab
  • Agregar a la lista

Afinación de cifrado

Afinador online

    00:00 / 00:00
    OK