Cifra Club

Shouting At The Rain

The Dear Hunter

Cifrado: Principal (guitarra y guitarra eléctrica)
tono: D
[Intro]

      D        A          Em          D      A         Em
E|------------------------------------------------------------|
B|------------------------------------------------------------|
G|---9b11---14s11--12b14--9~--------9s11--14s11--12b14--9~----|
D|-----------------------------9p7----------------------------|
A|------------------------------------------------------------|
E|------------------------------------------------------------|

   D
I tried to sell my soul a million times
                  A
But never got an offer
    Em
No never heard a word return out of the dark
                      Bm     A
But I would throw my voice

D
Maybe I just haven't got the goods
               A
Maybe I've forgotten
     Em
The way to find the peace in me
                             Bm      A
It's very down below, down below

                     D          A    Em
But I hope that we can find it
                     D          A    Em     
Yeah hope that we can find it

Yeah hope that I can
Bm
Get back to the way I was
A                             Em
Back before we knew what I'd become
Bm        A            
  I know everything's less
Bm
  But with a steady hand
A                          E
I can fix myself among the men
           G
Among the men

   D
I tried to give you all I had to give
                       A
But you just wouldn't take it
        Em
No you wouldn't hear the words I cried out in the dark
                     Bm     A
Cause you had turned away

D
Maybe I just haven't got the goods
               A
Maybe I've forgotten
     Em
The way to find the peace in me
                              Bm      
It's buried down below, down below
       A                       
But I hope that you can find it

      D        A          Em          D                A          Em
E|-------------------------------------------------------------------------|
B|----------------------------------------10s12s10-------------------------|
G|---9b11---14s11--12b14--9~--------9s11-------------9s11--12b14---9~------|
D|-----------------------------9p7-----------------------------------------|
A|-------------------------------------------------------------------------|
E|-------------------------------------------------------------------------|
                  
                     D          A      Em
Yeah hope that we can find it
                     D          A      Em
Yeah hope that we can find it

                   D
I hope that I can get back to the way I was
A                               Em
Back before we knew what I'd become

(But I hope that you can find it)

D
Get back to the way I was
A                               Em     Bm
Back before we knew what I'd become
00:00 / 00:00
Otros videos de esta canción
Repetir
Otros videos de esta canción
Composición de Casey Crescenzo
Colaboración y revisión:
  • Fabricio Méndez
2 vistas
    • ½ Tono
    • A
    • Bb
    • B
    • C
    • Db
    • D
    • Eb
    • E
    • F
    • F#
    • G
    • Ab
  • Agregar a la lista

    0 comentarios

    Ver todos los comentarios

    ¿Lograste tocar?

    1 Tocaron 0 Aún no

    ¡Graba un video tocando Shouting At The Rain y envíanoslo!

    00:00 / 00:00
    OK