Cifra Club

The Hunger

The Distillers

Cifrado: Principal (guitarra y guitarra eléctrica)
tono: C
(intro sem distorção 2x)

   (Am   C  F  B)
E|----------------------------------------------------------------|
B|----------------------------------------------------------------|
G|---2----------------------------4-------------------------------|
D|---2---------2---------3--------4-------------------------------|
A|---0---------3---------3--------2-------------------------------|
E|---0---------0---------1----------------------------------------|

 (Am   C  F  B) SEM DISTORÇÃO

Holy eyes, I never knew I'd beg down at your feet
Hold on tight I never knew I'd know much more than this
Open sky, the wave of pain the scent of you is bliss
Hungry eyes, they stare at me I know, I know

(G5   Em   F5   Em)
Don't go!

(solo 1 - sem distorção)
E|-----------------------------------------------------------------------------------------|
B|-----------------------------------------------------------------------------------------|
G|-----------------------------------------------------------------------------------------|
D|-----------------------------------------------------------------------------------------|
A|-5/12-12/10-10/7--7-7b(8)(8)(8)7---7/12/10/12-12-12/10--10-10/12-12/17--17-17/15--15/12--|
E|-----------------------------------------------------------------------------------------|
OBS: no solo, NEM sempre  há patetada na casa, apenas o slide.

 (Am  C  F  B) (sem distorção)
Summertime, the taste of saint secretes of perfume mist
Console the mind, I take it in lips of pink I kiss
Lonely sky, the more you take the more that I give in
Holy eyes, I never knew, I know, I know

(G5   Em   F5   Em)
Don't go!

(G5   Em   F5   Em)
Hold onto the memory, it's all you got
I know you'll be there to soak up blood lost
   E                  Am (entra direto na intro)
Blood lost      blood lost

(Am  C  F  B) (sem distorção 2x)

(solo 2 com distorção)
E|-----------------------------------------------------------------------------|
B|-----------------------------------------------------------------------------|
G|-----------------------------------------------------------------------------|
D|-/10-10-9p7h9-5-5/6/7-7/6-6h7-7h9-9-7/2---10-9p7h9-5-5/6/7-7/6-6h7-7h9-9-7/2-|
A|-----------------------------------------------------------------------------|
E|-----------------------------------------------------------------------------|

E|-----------------------------------------------------------------------------|
B|-----------------------------------------------------------------------------|
G|-----------------------------------------------------------------------------|
D|-10-9p7h9-10-10/13-13b-11/10/9-10/7---/10-9p7h9-5---5-5-5...-----------------|
A|-----------------------------------------------------------------------------|
E|-----------------------------------------------------------------------------|

(G5   Em   F5   Em)
Don't go!

(G5   Em   F5   Em)
Hold on to the memory, it's all you got
I know you'll be there to soak up blood lost
Hold on to the memory, it's all you got
I know you'll be there to soak up blood lost
   E             Am  (entra direto na intro)
Blood lost   blood lost

(só o baixo 3x)
heyyy…ey….ah hey…yeahhh

(guitarra abafada 2x) **no final da 2ª vez vai tirando o abafado
E|----------------------------------------------------------------|
B|----------------------------------------------------------------|
G|---2>>------------------------------4>>-------------------------|
D|---2>>---------2>>-------3>>--------4>>-------------------------|
A|---------------3>>-------3>>------------------------------------|
E|----------------------------------------------------------------|

heyyy…ey….ah hey…yeahhh

(final guitar 1)
E|----------------------------------------------|
B|----------------------------------------------|
G|-12b(14)-12b(14)-12b(14)-15b(17)--------------|
D|----------------------------------------------|    2X
A|----------------------------------------------|  \
E|----------------------------------------------|    \
Uuuuuuuuuuuhhh ahhhhhhhhh!!!!                                 |   tocar as 2 guita. juntas.
                                                              |
                  (guita.2)                                         /
E|------------------------------------------------|/
B|------------------------------------------------|
G|--14->>>-----17->>>-----------------------------|
D|---X->>>------X->>>-----------------------------|    2X
A|--12->>>..---15->>>..---------------------------|
E|------------------------------------------------|

E|-----------------------------------------------------------------|
B|-----------------------------------------------------------------|
G|--14->>>-----17->>>----21->-20->-19->-16->>-17--14---------------|
D|---X->>>------X->>>-----X->--X->--X->--X->>--X---X---------------|
A|--12->>>..---15->>>..--19->-18->-17->-14->>-15--12---------------|
E|-----------------------------------------------------------------|
00:00 / 00:00
Otros videos de esta canción
Repetir
Otros videos de esta canción
Composición de Brody Dalle
Colaboración y revisión:
1.686 exhibiciones
    • ½ Tono
    • A
    • Bb
    • B
    • C
    • Db
    • D
    • Eb
    • E
    • F
    • F#
    • G
    • Ab
  • Agregar a la lista
    00:00 / 00:00
    OK