Cifra Club

Five To One

The Doors

Cifrado: Principal (guitarra y guitarra eléctrica)
tono: C
riff 1
\---------------/
\---------------/
\---------------/
\---------------/
\---------------/
\-3--5--5--5--5-/

five to one baby, ....

riff 2 (ad lib)
\-------------/
\-------------/
\-9--7--5~7~5-/
\-------------/
\-------------/
\-------------/

the old get old the young g....

COME ON!

solo
this solo really kicks.  the opening riff was borrowed by
pearl jam and can also be seenin the "alive" solo.  Mike
Mccready just moved the riff down on the fretboard
(to start on E).

it is in an "Am PENTATONIC"

the start is
\-20^-17----------------------------------------------------------
\----------20^-17-------------------------------------------------
\-------------------17-19-------17----17--19--19^-19^-19^-17-19-17
\-------------------------17-19----19-----------------------------
\-----------------------------------------------------------------
\-----------------------------------------------------------------

the rest is just playing around with that scale

then back to riff 1

your ballroom days are ....

get together 1 ....

tabbed by
matt mitchell
00:00 / 00:00
Otros videos de esta canción
Repetir
Otros videos de esta canción
Composición de The Doors
Colaboración y revisión:
  • Thiago
1.109 vistas
    • ½ Tono
    • A
    • Bb
    • B
    • C
    • Db
    • D
    • Eb
    • E
    • F
    • F#
    • G
    • Ab
  • Agregar a la lista

    0 comentarios

    Ver todos los comentarios
    00:00 / 00:00
    OK