Cifra Club

Not To Touch The Earth

The Doors

Cifrado: Principal (guitarra y guitarra eléctrica)
tono: E
Introdução:

tempo(0:13)
e|----------------------
B|----------------------
G|----------------------
D|----------------------
A|--0-5br---0-10br------
E|----------------------

(REFRÃO 2 vezes)=======================================
tempo(0:51)
e|----------------------------------------
B|-------------8-8-8-6-6-6----------------
G|-------------------------9-9-9-8-8-8-7--
D|----------------------------------------
A|----------------------------------------
E|----------------------------------------
  run with me..
e|---------------------------------------
B|-------------6-6-6-4-4-4---------------
G|-------------------------7-7-7-6-6-6-5-
D|---------------------------------------
A|---------------------------------------
E|---------------------------------------
  run with me..
========================================================


tempo(1:07)
e|----------------------
B|--0-5br---0-10br------
G|----------------------
D|----------------------
A|----------------------
E|----------------------

tempo(1:27)
e|----------------------------------
B|----------------------------------
G|----------------------------------
D|----------------------------------
A|--3b-3b-5b-5b---------------------
E|----------------------------------





(REFRÃO 2 vezes)=======================================
tempo(1:55)
e|-------------------------------------------------
B|-------------10-10-10--8-8-8---------------------
G|-----------------------------11-11-11-10-10-10-9-
D|-------------------------------------------------
A|-------------------------------------------------
E|-------------------------------------------------
  run with me..
e|---------------------------------------
B|-------------8-8-8-6-6-6---------------
G|-------------------------9-9-9-8-8-8-7-
D|---------------------------------------
A|---------------------------------------
E|---------------------------------------
  run with me..
========================================================

(SOLO):
tempo(2:32)
e|--------------------------------------
B|-------------------11br---9-11br------
G|----------------10-----10-------10-8--
D|----------10-12-----------------------
A|-10-10h12-----------------------------
E|--------------------------------------

tempo(2:43)
e|--15-15-15-13-13-13------------------------------
B|-------------------15-15-13-13-13----------------
G|---------------------------------15br-13-15-13---
D|----------------------------------------------15-
A|-------------------------------------------------
E|-------------------------------------------------

tempo(2:54)
e|--16br13--------
B|--------16br13--
G|----------------
D|----------------
A|----------------
E|----------------

tempo(3:00)
e|----------------------------------
B|----------------------------------
G|--15b-15br--13--------------------
D|----------15--15------------------
A|----------------------------------
E|----------------------------------

tempo(3:06)
e|--16b-----------------------------
B|------13--------------------------
G|----------------------------------
D|----------------------------------
A|----------------------------------
E|----------------------------------

tempo(3:08)
e|--------------
B|--15br--------
G|------13------
D|--------------
A|--------------
E|--------------

e|----------------------------------
B|----------------------------------
G|---15b----15b----15b-----15b...---
D|----------------------------------
A|----------------------------------
E|----------------------------------
     Soon.. ..soon.. sooon. ...soooon!!

I´ll get you!!
Soon!!

e|--------------------------------------x---
B|--------------------------------------x---
G|--------------------------------------0---
D|--------------------------------------0---
A|--------------------------------------0---
E|--------------------------------------0---
I´m the lizard king, I can do anything..
Composición de Jim Morrison / John Densmore / Ray Manzarek / Robby Krieger / The Doors
Colaboración y revisión:
  • Thiago
530 vistas
    • ½ Tono
    • A
    • Bb
    • B
    • C
    • Db
    • D
    • Eb
    • E
    • F
    • F#
    • G
    • Ab
  • Agregar a la lista

    0 comentarios

    Ver todos los comentarios

    ¿Lograste tocar?

    2 Tocaron 0 Aún no

    ¡Graba un video tocando Not To Touch The Earth y envíanoslo!

    00:00 / 00:00
    Otros videos de esta canción
    Repetir Calidad Automático
    Otros videos de esta canción
    00:00 / 00:00
    Automático
    OK