Cifra Club

Hotel California

Eagles

Tablatura: Solo
reproducciones 2.307
Tono: D
(Violão 3)

Intro:

(Solo I)

1ª parte:

E|---------------------------------------------------|
B|------------------5-7-7/8\7-5/7--------------------|
G|--4-4h6p4\3-4-6-7----------------------------------|
D|---------------------------------------------------|
A|---------------------------------------------------|
E|---------------------------------------------------|

2ª parte:

E|---------------------------------------------------|
B|------3-2------------------------------------------|
G|--2-4-------2-2h4-2--------------------------------|
D|----------4---------4\2-0/2------------------------|
A|---------------------------------------------------|
E|---------------------------------------------------|

3ª parte:

E|--------0------0------0------0---------------------|
B|------0------0------0------0-----------------------|
G|----0------2------4------7-------------------------|
D|--2------4------5------9---------------------------|
A|---------------------------------------------------|
E|---------------------------------------------------|

4ª parte:
(acelerando..)
E|----7p0---10p0-|-----7-6-7-9-10-9-10-12/14~--------|
B|---8-----8-----|---8-------------------------------|
G|--9-----9------|-9---------------------------------|
D|---------------|-----------------------------------|
A|---------------|-----------------------------------|
E|---------------|-----------------------------------|

(Solo II)

1ª parte:

E|----2h3p2---2-2---2--------------------------------|
B|----------5-----5---3--5p3---0---------------------|
G|--4------------------------4---2/4-----------------|
D|---------------------------------------------------|
A|---------------------------------------------------|
E|---------------------------------------------------|

2ª parte:

E|----------------------------------7-9-10-9-10-12\0-|
B|-----3p2---2-2---------5-8-7-8h10------------------|
G|-2-4-----4-----2-4-6-7-----------------------------|
D|---------------------------------------------------|
A|---------------------------------------------------|
E|---------------------------------------------------|

3ª parte:

E|-------0-------0-------0-------0-7p0---10-12-10----|
B|-----0-------0-------0-------0-------0----------12-|
G|---0-------2-------4-------7-----------------------|
D|-2-------4-------5-------9-------------------------|
A|---------------------------------------------------|
E|---------------------------------------------------|

4ª parte:

E|--9-9h10p9\7-7h9p7\6-------------------------------|
B|----------------------8-7-7-7-8-7---7--------------|
G|----------------------------------9---7-6----------|
D|-------------------------------------------9-8-----|
A|---------------------------------------------------|
E|---------------------------------------------------|

(Dedilhado intro)

1ª parte:
   Bm                F#7/A#
E|------------7-------------9---------------|
B|--------7---------------7-----7-----------|
G|------7---7---7-9-----9-----9-------------|
D|----9---------------8---------------------|
A|------------------------------------------|
E|--7---------------------------------------|

2ª parte:
    A5(9)             E7(9)/G#
E|---------7---------------------7----------|
B|------10-----10------------7--------------|
G|----9------9----9--------7---7------------|
D|--7--------------------9------------------|
A|--------------------11--------------------|
E|------------------------------------------|

3ª parte:
    G                    D/A

E|-------------7---------------10-----------|
B|---------8-----------------7--------------|
G|-------7---7-------7-----7------7---------|
D|-----9---------7h9-----7------------------|
A|--10------------------------------9-------|
E|------------------------------------10----|

4ª parte:
    Em7           F#7

E|------------7--------------0--------------|
B|--------8--------------7------------------|
G|------7---7---------9----9----------------|
D|----9-------------8-----------------------|
A|--7-------------9-------------------------|
E|------------------------------------------|

(Solo III)

1ª parte:
E|--------------------------------------0------------|
B|---------------------------------------------------|
G|--------------------------------1---1--------------|
D|------------------------------0---0----------------|
A|--5-7-9-7--5h7p5\4--4-5-7\2-2----------------------|
E|---------------------------------------------------|

2ª parte:
E|---------------------------------------------------|
B|---------------------------------------------------|
G|---------------------------------------------------|
D|---------------2/4-0-2-4-5-4h5p4\2h4---------------|
A|--2-4-5\2-0--0-------------------------------------|
E|---------------------------------------------------|

Primeira Parte:
(Primeira estrofe – somente violão I e II)
"On a dark desert highway...”

(Segunda estrofe)

(Solo segunda estrofe da primeira parte)
1ª parte:
"There she stood in the doorway...”  arp.
E|---------------------------------------------------|
B|--3--5-5h7-------3-3/5-------2-2h3----3------2-----|
G|--4--6-6h7-6--6--4-4/6-4--4--2-2h4-2--2----2---3---|
D|-----------8--7--------6--5--------4--4--4---------|
A|---------------------------------------------------|
E|---------------------------------------------------|

2ª parte:
                          F#7
E|--0-----------0-------0----------------2--|
B|--0---0-----0-------0----------2---2------|
G|----0-----2-------4----------3---3---3----|
D|--------4-------5-------------------------|
A|---------------------------4--------------|
E|-------------------------2----------------|

Refrão I:
"Welcome to the Hotel California...”

(Solo refrão)
1ª parte:
E|---------------------------------------------------|
B|---------------------------------------------------|
G|------4-6-7---7-7-7-7--7/9---7-7-------------------|
D|--4h8---------7-7-9-7--9/11--9-7-------------------|
A|---------------------------------------------------|
E|---------------------------------------------------|

2ª parte:
E|--------2--3-5-7-----------------------------------|
B|--3--5---------------------------------------------|
G|---------------------------------------------------|
D|--------0--2-4-5-----------------------------------|
A|--2--4---------------------------------------------|
E|---------------------------------------------------|

3ª parte:
E|---9--9\7--7-7-7\5--5-5----------------------------|
B|--10-10\8--8-8-8\7--7-7----------------------------|
G|---------------------------------------------------|
D|---------------------------------------------------|
A|---------------------------------------------------|
E|---------------------------------------------------|

Segunda parte:

(Primeira estrofe – somente violão I e II)
"Her mind is Tiffany-twisted...”

(Segunda estrofe)

(Solo segunda estrofe da segunda parte)
1ª parte:
"So I called up the Captain...”
E|---------------------------------------------------|
B|--3--5-5h7----5-5h7----3-3/5-----------------------|
G|--4--6-6h7-6--6-6h7-6--4-4/6-4---------------------|
D|-----------8--------7--------6---------------------|
A|---------------------------------------------------|
E|---------------------------------------------------|

E|--------------------2------------------------------|
B|--2-2h3----2-2h3------3----------------------------|
G|--2-2h4-3--2-2h4-2---------------------------------|
D|--------4--------4---------------------------------|
A|---------------------------------------------------|
E|---------------------------------------------------|

2ª parte:
                          F#7
E|--0-----------0-------0----------------2--|
B|--0---0-----0-------0----------2---2------|
G|----0-----2-------4----------3---3---3----|
D|--------4-------5-------------------------|
A|---------------------------4--------------|
E|-------------------------2----------------|

Refrão II:
"Welcome to the Hotel California...”

(Solo - Refrão II)
1ª parte:
E|-------------9--9--9\7--7-7\5--5-5-----------------|
B|------------10-10-10\8--8-8\7--7-7-----------------|
G|------4-6-7----------------------------------------|
D|--4h8----------------------------------------------|
A|---------------------------------------------------|
E|---------------------------------------------------|

2ª parte:
E|--------2--3-5-7-----------------------------------|
B|--3--5---------------------------------------------|
G|---------------------------------------------------|
D|--------0--2-4-5-----------------------------------|
A|--2--4---------------------------------------------|
E|---------------------------------------------------|

3ª parte:
E|--7-7-7\5--5-5\2--2--------------------------------|
B|--8-8-8\7--7-7\3--3--------------------------------|
G|---------------------------------------------------|
D|---------------------------------------------------|
A|---------------------------------------------------|
E|---------------------------------------------------|

4ª parte:
E|--------0----------0--------0----------------------|
B|------0----------0--------0------------------------|
G|----0-----0----2--------4-----4--------------------|
D|--3----------4--------5----------------------------|
A|---------------------------------------------------|
E|---------------------------------------------------|

Terceira parte:
(Primeira estrofe - repete dedilhado intro)
"Mirrors on the ceiling...”

1ª parte:
    Bm                F#7/A#
E|------------7-------------9---------------|
B|--------7---------------7-----7-----------|
G|------7---7---7-9-----9-----9-------------|
D|----9---------------8---------------------|
A|------------------------------------------|
E|--7---------------------------------------|

2ª parte:
    A9                E7(9)/G#
E|---------7---------------------7----------|
B|------10-----10------------7--------------|
G|----9------9----9--------7---7------------|
D|--7--------------------9------------------|
A|--------------------11--------------------|
E|------------------------------------------|

3ª parte:
    G                    D/A
E|-------------7---------------10-----------|
B|---------8-----------------7--------------|
G|-------7---7-------7-----7----------------|
D|-----9---------7h9-----7------------------|
A|--10----------------------------9---------|
E|----------------------------------10------|

4ª parte:
    Em7           F#7
E|------------7--------------0--------------|
B|--------8--------------7------------------|
G|------7---7----------9---9----------------|
D|----9-------------11----------------------|
A|--7-------------9-------------------------|
E|------------------------------------------|

Segunda estrofe da terceira parte:
"Last thing I remember, I was...”

1ª parte:

E|-----7\6-7-----6\5-6-----5\4-5-----4\3-4-----------|
B|-----7\6-7-----7\6-7-----5\4-5-----5\4-5-----------|
G|--7---------6---------6---------4------------------|
D|--9---------8---------7---------6------------------|
A|---------------------------------------------------|
E|---------------------------------------------------|

2ª parte:
                                F#
E|----3\2-3-----2\1-2---------------------------2--2-|
B|----3\2-3-----3\2-3-----3\2-3---------2-----2----2-|
G|-4---------2---------0--4\3-4-------3-----3------3-|
D|-5---------4---------2------------4-----4--------4-|
A|--------------------------------4----------------4-|
E|------------------------------2------------------2-|

(Solo IV)
1ª parte:
E|------------------------------7--5--3--2-----------|
B|------------------------------7--5--3--2-----------|
G|---------9~-9-9-9-9-7-6-9-7-6-7--6--4--3-----------|
D|--8-9-11-------------------------------------------|
A|---------------------------------------------------|
E|---------------------------------------------------|

2ª parte:
E|--9-10-12-12-12-12~--------------------------------|
B|---------------------------------------------------|
G|---------------------------------------------------|
D|---------------------------------------------------|
A|---------------------------------------------------|
E|---------------------------------------------------|

3ª parte:
E|--12-11-10----11-10--------------------------------|
B|-----------12-------12-10-9------------------------|
G|----------------------------9----------------------|
D|------------------------------9--------------------|
A|--------------------------------9h11---------------|
E|---------------------------------------------------|

4ª parte:
                                         Em  F#7
E|---------------------------------------0---0--------|
B|---------------------------------------0---0--------|
G|--------------------------2h3-2-4p2----0---3--------|
D|--------------2---4-2-5-4-----------4--2---2--------|
A|--------2-5-4---5----------------------2---4--------|
E|--2-3-5--------------------------------0---2--------|

(Dedilhado base solo)
1ª parte:
    Bm              F#7
E|------------2---------------2-------------|
B|--------3-----3---------2-----------------|
G|------4---4-----------3---3---------------|
D|----4---------------2---------------------|
A|--2---------------------------------------|
E|------------------2-----------------------|

2ª parte:
    A               E7
E|------------5---------------0-------------|
B|--------2-----2---------0-----------------|
G|------2---2-----------1---1---------------|
D|----2---------------0---------------------|
A|--0---------------------------------------|
E|------------------0-----------------------|

3ª parte:
    G               D
E|------------------------2---2-------------|
B|------------3---------3-------3-----------|
G|--------4-----4-----2-----2---------------|
D|------5---5-------0-----------------------|
A|----5-------------------------------------|
E|--3---------------------------------------|

4ª parte:
    Em              F#7
E|----------------------------2-------------|
B|--------0---0-----------2-----------------|
G|------0---0---0-------3---3---------------|
D|----2---------------2---------------------|
A|------------------------------------------|
E|--0---------------2-----------------------|

(Solo Final - violão I)

1ª parte:
E|--7-6-7-9-10p7---10p7---10p7---10p7---10p7---------|
B|---------------7------7------7------7------7-------|
G|---------------------------------------------------|
D|---------------------------------------------------|
A|---------------------------------------------------|
E|---------------------------------------------------|

2ª parte:
E|--9p6---9p6---9p6--14------------------------------|
B|------7-----7--------------------------------------|
G|---------------------------------------------------|
D|---------------------------------------------------|
A|---------------------------------------------------|
E|---------------------------------------------------|

3ª parte:
E|--9p5---9p5---9p5---9p5---9p5----------------------|
B|------5-----5-----5-----5-----5--------------------|
G|---------------------------------------------------|
D|---------------------------------------------------|
A|---------------------------------------------------|
E|---------------------------------------------------|

4ª parte:
E|--7p4---7p4---7p4--12------------------------------|
B|------5-----5--------------------------------------|
G|---------------------------------------------------|
D|---------------------------------------------------|
A|---------------------------------------------------|
E|---------------------------------------------------|

5ª parte:
E|-–7p3---7p3---7p3---7p3---7p3----------------------|
B|------3-----3-----3-----3-----3--------------------|
G|---------------------------------------------------|
D|---------------------------------------------------|
A|---------------------------------------------------|
E|---------------------------------------------------|

6ª parte:
E|--5p2---5p2---5p2--10------------------------------|
B|------3-----3--------------------------------------|
G|---------------------------------------------------|
D|---------------------------------------------------|
A|---------------------------------------------------|
E|---------------------------------------------------|

7ª parte:
E|-–3p0---3p0---3p0---3p0---3p0----------------------|
B|------0-----0-----0-----0-----0--------------------|
G|---------------------------------------------------|
D|---------------------------------------------------|
A|---------------------------------------------------|
E|---------------------------------------------------|

8ª parte:
E|-----0-----2-----6-----7--------------7-7-7-7-----|
B|--2h3---2-----3-----7-----7-------7-11-------7-----|
G|----------3-----4-----9-----7-7-9------------7-----|
D|---------------------------------------------9-----|
A|---------------------------------------------9-----|
E|---------------------------------------------7-----|
Acordes para:
    Compositor: Don Felder / Don Henley / Glenn FreyColaboración y revision:
    • Leandro Sandim
    • Caroline

    0 comentarios

      mostrar más comentarios

      ¿Conseguiste tocar?

      14tocaron2aún no

      ¡Graba un vídeo tocando Hotel California y envianoslo!

      00:00 / 00:00
      outros vídeos desta música
      repetirqualidadeautomática
      Outro vídeos desta música
        00:00 / 00:00
        automática
        Capítulos
        • Início
        • Tocando a música
        • Violão 1 - Acordes da Introdução
        • Violão 1 - Tocando Introdução
        • Violão 1 - Ensinando Introdução
        • Violão 1 - Tocando Primeira Parte
        • Violão 1 - Tocando Refrão
        • Violão 3 - Ensinando Segunda Parte
        • Violão 1 - Ensinando Refrão
        • Violão 1 - Tocando Solo
        • Violão 1 - Ensinando Solo
        • Violão 1 - Tocando Solo Final
        • Violão 1 - Ensinando Solo Final
        • Violão 2 - Acordes da Introdução e Primeira Parte
        • Violão 2 - Tocando Introdução
        • Violão 2 - Ensinando Introdução
        • Violão 2 - Tocando Primeira Parte
        • Violão 2 - Ensinando Primeira Parte
        • Violão 2 - Acordes do Refrão
        • Violão 2 - Tocando Refrão
        • Violão 2 - Ensinando Refrão
        • Violão 2 - Tocando Terceira Parte
        • Violão 2 - Ensinando Terceira Parte
        • Violão 3 - Acordes da Introdução
        • Violão 3 - Tocando Introdução
        • Violão 3 - Ensinando Solo 1 da Introdução
        • Violão 3 - Ensinando Solo 2 da Introdução
        • Violão 3 - Ensinando Dedilhado da Introdução
        • Violão 3 - Ensinando Solo 3 da Introdução
        • Violão 3 - Tocando Primeira Parte
        • Violão 3 - Ensinando Primeira Parte
        • Violão 3 - Tocando Primeiro Refrão
        • Violão 3 - Ensinando Refrão
        • Violão 3 - Tocando Segunda Parte
        • Violão 3 - Tocando Segundo Refrão
        • Violão 3 - Ensinando Segundo Refrão
        • Violão 3 - Tocando Terceira Parte
        • Violão 3 - Ensinando Terceira Parte
        • Violão 3 - Tocando Solo
        • Violão 3 - Ensinando Solo 4
        • Violão 3 - Acordes da Base do Solo do Violão 1
        • Violão 3 - Tocando Base do Solo
        • Violão 3 - Ensinando Base do Solo
        • Violão 3 - Tocando Solo Final
        • Violão 3 - Ensinando Solo Final
        • Encerramento
        OK