Cifra Club

Hotel California

Eagles

Tab de bajo: Versão 2
reproducciones 167
Intro:

G|---------------------------------------------------
D|---------------------------------------------------
A|---9---7---5---------------------------------------
E|-7---5---3---0-2-----------------------------------


Primeira parte:

G|------------------------11----11-------------------
D|-------9---9-9-------11----11----11----------------
A|-----9---9-----9-9-9----------------9--------------
E|-7-7-----------------------------------------------

G|-----------------------9---9-----------------------
D|-------7---7-7-------9---9---9---------------------
A|-----7---7-----7-7-7-----------7-------------------
E|-5-5-----------------------------------------------

G|-----------------------7---7-----------------------
D|-------5---5-5-------7---7---7---------------------
A|-----5---5-----5-5-5-----------5-------------------
E|-3-3-----------------------------------------------

G|---------------------------------------------------
D|-------2---2-2---------4---4---4-------------------
A|-----2---2-----2-----4---4---4---4-----------------
E|-0-0-------------2-2-------------------------------

G|------------------------11----11-------------------
D|-------9---9-9-------11----11----11----------------
A|-----9---9-----9-9-9----------------9--------------
E|-7-7-----------------------------------------------

G|-----------------------9---9-----------------------
D|-------7---7-7-------9---9---9---------------------
A|-----7---7-----7-7-7-----------7-------------------
E|-5-5-----------------------------------------------

G|-----------------------7---7-----------------------
D|-------5---5-5-------7---7---7---------------------
A|-----5---5-----5-5-5-----------5-------------------
E|-3-3-----------------------------------------------

G|---------------------------------------------------
D|-------2---2-2---------4---4-----------------------
A|-----2---2-----2-----4---4-----1-2-4---------------
E|-0-0-------------2-2---------2---------------------

On a dark desert highway, cool wind in my hair
Warm smell of colitas, rising up through the air
Up ahead in the distance, I saw a shimmering light
My head grew heavy and my sight grew dim
I had to stop for the night

There she stood in the doorway
I heard the mission bell
And I was thinking to myself
This could be Heaven or this could be Hell

Then she lit up a candle and she showed me the way
There were voices down the corridor
I thought I heard them say

Refrão:

G|-------------------------7---7---------------------
D|-5-------5---5-----7---7---7---7\------------------
A|---5---5---5---2/5---5-----------------------------
E|-----3---------------------------------------------

G|---------------------------------------------------
D|-4-------4---4---------2-4-------------------------
A|---4---4---4---4-2-4-5-----------------------------
E|-----2---------------------------------------------

G|-------------------------7---7---------------------
D|-5-------5---5-----7---7---7---7\------------------
A|---5---5---5---2/5---5-----------------------------
E|-----3---------------------------------------------

G|---------------------------------------------------
D|-2-------2---2-------4---4-------------------------
A|---2---2---2---2---4---4---------------------------
E|-----0-----------2---------------------------------

(...)
Welcome to the Hotel California
Such a lovely place (2x)
Such a lovely face
Plenty of room at the Hotel California
Any time of year (2x)
You can find us here

Segunda parte:

G|------------------------11----11-------------------
D|-------9---9-9-------11----11----11----------------
A|-----9---9-----9-9-9----------------9--------------
E|-7-7-----------------------------------------------

G|-----------------------9---9-----------------------
D|-------7---7-7-------9---9---9---------------------
A|-----7---7-----7-7-7-----------7-------------------
E|-5-5-----------------------------------------------

G|-----------------------7---7-----------------------
D|-------5---5-5-------7---7---7---------------------
A|-----5---5-----5-5-5-----------5-------------------
E|-3-3-----------------------------------------------

G|---------------------------------------------------
D|-------2---2-2---------4---4---4-------------------
A|-----2---2-----2-----4---4---4---4-----------------
E|-0-0-------------2-2-------------------------------

G|------------------------11----11-------------------
D|-------9---9-9-------11----11----11----------------
A|-----9---9-----9-9-9----------------9--------------
E|-7-7-----------------------------------------------

G|-----------------------9---9-----------------------
D|-------7---7-7-------9---9---9---------------------
A|-----7---7-----7-7-7-----------7-------------------
E|-5-5-----------------------------------------------

G|-----------------------7---7-----------------------
D|-------5---5-5-------7---7---7---------------------
A|-----5---5-----5-5-5-----------5-------------------
E|-3-3-----------------------------------------------

G|---------------------------------------------------
D|-------2---2-2---------4---4-----------------------
A|-----2---2-----2-----4---4-----1-2-4---------------
E|-0-0-------------2-2---------2---------------------

(...)
Her mind is Tiffany-twisted, she got the Mercedes-Benz
She got a lot of pretty, pretty boys, that she calls friends
How they dance in the courtyard, sweet summer sweat
Some dance to remember, some dance to forget

So I called up the Captain
Please bring me my wine
He said, we haven't had that spirit here since nineteen sixty-nine
And still those voices are calling from far away
Wake you up in the middle of the night
Just to hear them say

Repetição do refrão:

G|-------------------------7---7---------------------
D|-5-------5---5-----7---7---7---7\------------------
A|---5---5---5---2/5---5-----------------------------
E|-----3---------------------------------------------

G|---------------------------------------------------
D|-4-------4---4---------2-4-------------------------
A|---4---4---4---4-2-4-5-----------------------------
E|-----2---------------------------------------------

G|-------------------------7---7---------------------
D|-5-------5---5-----7---7---7---7\------------------
A|---5---5---5---2/5---5-----------------------------
E|-----3---------------------------------------------

G|---------------------------------------------------
D|-2-------2---2-------------------------------------
A|---2---2---2---2-----------------------------------
E|-----0-----------2---------------------------------

(...)
Welcome to the Hotel California
Such a lovely place (2x)
Such a lovely face
We're livin' it up at the Hotel California
What a nice surprise (2x)
Bring your alibis

Terceira parte:

G|---------------------------------------------------
D|---------------------------------------------------
A|---9---7---5---------------------------------------
E|-7---5---3---0-2-----------------------------------

G|------------------------11----11-------------------
D|-------9---9-9-------11----11----11----------------
A|-----9---9-----9-9-9----------------9--------------
E|-7-7-----------------------------------------------

G|-----------------------9---9-----------------------
D|-------7---7-7-------9---9---9---------------------
A|-----7---7-----7-7-7-----------7-------------------
E|-5-5-----------------------------------------------

G|-----------------------7---7-----------------------
D|-------5---5-5-------7---7---7---------------------
A|-----5---5-----5-5-5-----------5-------------------
E|-3-3-----------------------------------------------

G|---------------------------------------------------
D|-------2---2-2---------4-4-2-4---------------------
A|-----2---2-----2-----4-----------------------------
E|-0-0-------------2-2-------------------------------

(...)
Mirrors on the ceiling
The pink champagne on ice
And she said, we are all just prisoners here, of our own device
And in the master's chambers
They gathered for the feast
The stab it with their steely knives
But they just can't kill the beast

Last thing I remember, I was
Running for the door
I had to find the passage back
To the place I was before
Relax, said the night man

We are programmed to receive
You can check out any time you like
But you can never leave

Solos:

G|------------------------11----11-------------------
D|-------9---9-9-------11----11----11----------------
A|-----9---9-----9-9-9----------------9--------------
E|-7-7-----------------------------------------------

G|-----------------------9---9-----------------------
D|-------7---7-7-------9---9---9---------------------
A|-----7---7-----7-7-7-----------7-------------------
E|-5-5-----------------------------------------------
                                                         (3x)
G|-----------------------7---7-----------------------
D|-------5---5-5-------7---7---7---------------------
A|-----5---5-----5-5-5-----------5-------------------
E|-3-3-----------------------------------------------

G|---------------------------------------------------
D|-------2---2-2---------4---4---4-------------------
A|-----2---2-----2-----4---4---4---4-----------------
E|-0-0-------------2-2-------------------------------

Final:

G|---------------------------------------------------
D|-------9-------------------------------------------
A|-----9---------------------------------------------
E|-7-7-----------------------------------------------
Compositor: Don Felder / Don Henley / Glenn FreyColaboración y revision:
  • Filipe Marks
  • Vinícius Dias

0 comentarios

    mostrar más comentarios

    ¿Conseguiste tocar?

    7tocaron1aún no

    ¡Graba un vídeo tocando Hotel California y envianoslo!

    00:00 / 00:00
    outros vídeos desta música
    repetirqualidadeautomática
    Outro vídeos desta música
      00:00 / 00:00
      automática
      Capítulos
      • Início
      • Tocando música
      • Dicas Iniciais
      • Tocando Introdução
      • Ensinando Introdução
      • Tocando Primeira Parte
      • Ensinando Primeira Parte
      • Tocando Refrão
      • Ensinando Refrão
      • Tocando Terceira Parte
      • Ensinando Terceira Parte
      • Tocando Base do Solo
      • Ensinando Base do Solo
      • Encerramento
      OK