Cifra Club

Hotel California

Eagles

Tablatura: Ukulele (guitarra)
Tono: D
[Intro]

     Bm
A|2---------2-----2-----------4---|
E|2-----2-------2-------------2---|
C|2---2---2---2-----------2---4---|
G|4---------------------------3---|

     F#7
A|----------4---------------------|
E|------2-2-----2-----------------|
C|----4-------4-------------------|
G|3---------------3---------------|

     A
A|------0---2---0--------0--------|
E|----0---------------0--------0-2|
C|-------------------------1------|
G|2-------2-------2---------------|

         E7
A|----2---2-------2---------------|
E|4---------2---------------------|
C|------2-----2-2-----------------|
G|--------------------------------|

     G
A|----2---2---2---2-------0h2-----|
E|----------3-----------3---------|
C|------2-------2-------------2---|
G|0-------------------0-----------|

     D
A|----5-----5---------5-----------|
E|------2-------2-2-----2-----2---|
C|--------2---------------2-------|
G|2-----------2-------------------|

     Em7
A|----2---2-------2---------------|
E|0---------------------0-------0-|
C|------2-----2-------2-------2---|
G|----------0---0---------0-------|

     F#7
A|----------------4---------------|
E|------2-2-----2-----------------|
C|----4-------4-------------------|
G|3---------3---------------------|

 Bm
On a dark desert highway
 F#7
Cool wind in my hair
 A
Warm smell of colitas
 E7
Rising up through the air
 G
Up ahead in the distance
 D
I saw a shimmering light
 Em7
My head grew heavy and my sight grew dim
 F#7
I had to stop for the night

 Bm
There she stood in the doorway
 F#7
I heard the mission bell
 A
And I was thinking to myself
 E7
This could be Heaven or this could be Hell
 G
Then she lit up a candle
 D
And she showed me the way
 Em7
There were voices down the corridor
 F#7
I thought I heard them say

G                      D
Welcome to the Hotel California
        F#7
Such a lovely place
       Bm
Such a lovely face
G                                D
Plenty of room at the Hotel California
     Em7
Any time of year
         F#7
You can find us here

 Bm
Her mind is Tiffany-twisted
 F#7
She got the Mercedes-Benz
 A
She got a lot of pretty, pretty boys
 E7
That she calls friends
 G
How they dance in the courtyard
 D
Sweet summer sweat
 Em7
Some dance to remember
 F#7
Some dance to forget

 Bm
So I called up the Captain
 F#7
Please bring me my wine, he said
 A
We haven't had that spirit here since
 E7
Nineteen sixty-nine
 G                                        D
And still those voices are calling from far away
 Em7
Wake you up in the middle of the night
 F#7
Just to hear them say

G                          D
Welcome to the Hotel California
        F#7
Such a lovely place
        Em7
Such a lovely face
      G                              D
We're livin' it up at the Hotel California
        Em7
What a nice surprise
           F#7
Bring your alibis

  Bm
Mirrors on the ceiling
  F#
The pink champagne on ice, and she said
  A
We are all just prisoners here
  E
Of our own device
  G
And in the master's chambers
  D
They gathered for the feast
 Em
The stab it with their steely knives
 F#
But they just can't kill the beast

 Bm
Last thing I remember, I was
 F#
Running for the door
 A
I had to find the passage back
 E
To the place I was before
 G
Relax, said the night man
 D
We are programmed to receive
 Em
You can check out any time you like
 F#
But you can never leave

[Solo]

A|---------------------------------------|
E|----------5h7b10-----5-6--------2------|
C|---5/6------------------4--2-4---2-----|
G|-----------------------------------3---|

A|---------------------------------------|
E|---------------------------------------|
C|---------------------------------------|
G|-4h6p4p2b3-----------------------------|

A|---------------------------------------|
E|-----2--------------2--------------5b6-|
C|-2-4---2--------2-4---2----------------|
G|---------4-2-4----------4-2-4--2-------|

A|--5-------------------2-----5b6--------|
E|------br5---7-5-3b4-----2--------------|
C|---------------------------------------|
G|---------------------------------------|

A|-----5---------------------------------|
E|---------------------------------------|
C|-4b6-----7br4--2---2p1--2--------------|
G|---------------------------------------|

A|--5---7pb5---2--------5----------------|
E|----------------5b7------7br5----3-----|
C|-----------------------------------x-x-|
G|---------------------------------------|

A|--------------2----2-2-----------------|
E|----3-5-----2------2-2-----2-2---------|
C|-4b------4b-----4b------4b-----4bbrp2-4|
G|---------------------------------------|

A|---------------------------------------|
E|---------------------------------------|
C|--2----4b-/----------------------------|
G|---------------------------------------|

A|-----------------------2--------5------|
E|--------2-----------5b---5-7-5b---5-7-6|
C|--6b--4---2----------------------------|
G|-------------4--2----------------------|

A|---------------------------------------|
E|-5-4~----------------------------------|
C|-----------------9b--------------------|
G|---------------------------------------|

A|------------------12-------------------|
E|-7--10--12-10-12b---12br--10-12-10-12b-|
C|---------------------------------------|
G|---------------------------------------|

A|-10-11-12-14---------------------------|
E|------------12b-12br-10--12------------|
C|---------------------------------------|
G|---------------------------------------|

A|------------12-12--------------------9-|
E|-12p10--12b-------12br--12b~--12r-10---|
C|---------------------------------------|
G|---------------------------------------|

A|---12-12-------------------12b---------|
E|-12b-----12br-12b~-12br-10-------------|
C|---------------------------------------|
G|---------------------------------------|

A|----5----5-----------------------------|
E|-7b---7b-----------------6-------------|
C|------------5p3p2----------------------|
G|-------------------4--3----------------|

A|-7bb-7b-7b-7b-7b-7b-7b-7b-7b-7-7p5---7-|
E|-----------------------------------7---|
C|---------------------------------------|
G|---------------------------------------|

A|--5------------------------------------|
E|-----7---------------------------------|
C|---------------------------------------|
G|---------------------------------------|

A|---------------------------------------|
E|-5------------5-------3----------------|
C|---4bbr-2--4b------4b------------------|
G|---------------------------------------|

A|5---4---2-------------------------9---7|
E|--5---3-----5---3---------4---------5--|
C|---------6----4-----2-----------2------|
G|------------------2---2\0---0/2--------|

A|-5-------------------------------------|
E|-----------2---3-----------------------|
C|---7bbr--6-----------------------------|
G|---------------------------------------|

A|------------------4-----5-----7--------|
E|-3--5----7---6-------------------------|
C|---------------------------------------|
G|---------------------------------------|

A|-9------9------9------9------9---------|
E|---10-----10-----10-----10-----10------|
C|------11-----11-----11------11-----11--|
G|---------------------------------------|


A|------------------------------13-------|
E|--12--9-----12--9-----12--9------------|
C|--------10---------10------------------|
G|---------------------------------------|

A|-7-------7--------7--------7-------7---|
E|---9-------9--------9--------9-------9-|
C|-----9-------9--------9--------9-------|
G|---------------------------------------|

A|------7--------7--------7-----11-------|
E|-------7--------7--------7-------------|
C|-9--------8--------8-------------------|
G|---------------------------------------|

A|-5-------5--------5--------5-------5---|
E|---7-------7--------7--------7-------7-|
C|-----7-------7--------7--------7-------|
G|---------------------------------------|

A|------5--------5--------5-----9--------|
E|-------5--------5--------5-------------|
C|-7--------6--------6-------------------|
G|---------------------------------------|

A|---------------------------------------|
E|----7p3-----7p3-----7p3----7p3---9p6---|
C|-------4-------4-------4------4-----6--|
G|---------------------------------------|

A|-------------------9-------------------|
E|-9p6----9p6---9p6----------------------|
C|----6------6-----6---------------------|
G|---------------------------------------|

     Bm
E|-2-2-2-2-------------------------------|
B|-2-2-2-2-------------------------------|
G|-2-2-2-2-------------------------------|
D|-4-4-4-4-------------------------------|
reproducciones 72
Acordes para:
    Compositor: Don Felder / Don Henley / Glenn Frey Colaboración y revision:
    • Getúlio Vasconcelos
    • Gustavo Bernardeli

    0 comentarios

    mostrar más comentarios

    ¿Conseguiste tocar?

    0 tocaron 0 aún no

    ¡Graba un vídeo tocando Hotel California y envianoslo!

    00:00 / 00:00
    outros vídeos desta música
    repetir qualidade Automático
    Outros vídeos desta música
    00:00 / 00:00
    Automático
    OK