Cifra Club

How Long Solo

Eagles

Tablatura: Principal (guitarra)
Tom: F
Tabbed by: Brennan

Tuning:Standard

So I’m pretty sure this is very close to being completely correct. I cannot figure out 
last few notes so please if you can, repost this song with corrections and its ending

Thanks

e|-------------------------8------------------------------------------------|
B|--------------1-3-1--3s5----3br-1-3----------10----10---10--10--10--8--3--|
G|--2p0---0--2-------------------------0-3s5---12b-pb12r--12--12--10--8--3--|
D|------2-------------------------------------------------------------------|
A|--------------------------------------------------------------------------|
E|--------------------------------------------------------------------------|

e|--------------------------------------------------------------------------|
B|------------------------------------8---8-s17--13---15-----15----15----15-|
G|--1-3-1b-------------------5-5s9--9---9-------------14b--pb14--pb14--pb14-|
D|----------3-1-3-------5---------------------------------------------------|
A|----------------3--s7---7-------------------------------------------------|
E|--------------------------------------------------------------------------|

e|--------------------------------------------------------------------------|
B|----15--------------------------------------------------------------------|
G|--pb14r--12----------????????---------------------------------------------|
D|---------------------????????---------------------------------------------|
A|--------------------------------------------------------------------------|
E|--------------------------------------------------------------------------|

Legend

P = pull off
S = slide
B = bend
Pb= pre-bend
R = release
reproducciones 70
Acordes para:

    0 comentarios

    mostrar más comentarios

    ¿Conseguiste tocar?

    0 tocaron 0 aún no

    ¡Graba un vídeo tocando How Long Solo y envianoslo!

    00:00 / 00:00
    outros vídeos desta música
    repetir qualidade Automático
    Outros vídeos desta música
    00:00 / 00:00
    Automático
    OK