Cifra Club

How Long

Eagles

Tablatura: Principal (guitarra)
Tom: D
intro:

E|---------------------------------------------------------------------|
B|-------------8-----8--------------------------11--11--11--10-8-8-----|
G|-----------5-7b----7br-5-5----s7-5------------10b-10b-10b------7br-5-|
D|-------5-7-------------------------7-6-0-3---------------------------|
A|---3s7-----------------------------------3---------------------------|
E|-----------------------------------------1---------------------------|

E|--------------------------------------------------------------------|
B|---8----------------------------------------------------------------|
G|-7-7brp5---5--------------------------------------------------------|
D|--------h7-5--------------------------------------------------------|
A|-----------3--------------------------------------------------------|
E|--------------------------------------------------------------------|
reproducciones 233
Acordes para:
    Composição: J.D. Souther Colaboración y revision:
    • Taino Vieira

    0 comentarios

    mostrar más comentarios

    ¿Conseguiste tocar?

    0 tocaron 0 aún no

    ¡Graba un vídeo tocando How Long y envianoslo!

    00:00 / 00:00
    outros vídeos desta música
    repetir qualidade Automático
    Outros vídeos desta música
    00:00 / 00:00
    Automático
    OK