Cifra Club

Life in the Fast Lane (intro)

Eagles

Tablatura: Principal (guitarra)
Tom: G
Here is what I think the intro to Life in the Fast Lane (by the
Eagles) is:

E---------------------------------------------
B---------------------------------------------
G-----2---0--------------------2---0----------
D-0^2---2---2p0------------0^2---2---2p0------
A---------------0------------------------0----
E-----------------3-0----------------------3--

E----------------------------------------
B----------------------------------------
G-----2---0---------------2---0----------
D-0^2---2---2p0-------0^2---2---2p0------
A---------------0-------------------0----
E-----------------3-0-----------------3--

The difference between the two above riffs is that the first has a break in
it (the big space) and the second is continuous.
------------------

Return-Path: 
Date: Wed, 3 Aug 1994 15:44:49 -0400




>Here is what I think the intro to Life in the Fast Lane (by the
>Eagles) is:
>E---------------------------------------------
>B---------------------------------------------
>G-----2---0--------------------2---0----------
>D-0^2---2---2p0------------0^2---2---2p0------
>A---------------0------------------------0----
>E-----------------3-0----------------------3--

and later

>Looks pretty good, but I think the last couple notes are like so:
> E---------------------------------------------
> B---------------------------------------------
> G-----2---0--------------------2---0----------
> D-0^2---2---2p0------------0^2---2---2p0------
> A---------------3-0----------------------3-0--
> E-------------------3-------------------------
reproducciones 110
Acordes para:

    0 comentarios

    mostrar más comentarios

    ¿Conseguiste tocar?

    0 tocaron 1 aún no

    ¡Graba un vídeo tocando Life in the Fast Lane (intro) y envianoslo!

    00:00 / 00:00
    outros vídeos desta música
    repetir qualidade Automático
    Outros vídeos desta música
    00:00 / 00:00
    Automático
    OK