Cifra Club

Life In The Fast Lane

Eagles

Tablatura: Principal (guitarra)
Tom: A
Intro:
E|----------------------------------------|
B|----------------------------------------|
G|-----2---0---------------2---0----------|
D|-0^2---2---2p0-------0^2---2---2p0------|
A|---------------0-------------------0----|
E|-----------------3-0-----------------3--|

E|----------------------------------------|
B|----------------------------------------|
G|-----2---0---------------2---0----------|
D|-0^2---2---2p0-------0^2---2---2p0------|
A|---------------0-------------------0----|
E|-----------------3-0-----------------3--|

E|---------------------------------------------
B|---------------------------------------------
G|-----2---0--------------------2---0----------
D|-0^2---2---2p0------------0^2---2---2p0------
A|---------------0------------------------0----
E|-----------------3-0----------------------3--

E|---------------------------------------------
B|---------------------------------------------
G|-----2---0--------------------2---0----------
D|-0^2---2---2p0------------0^2---2---2p0------
A|---------------3-0----------------------3-0--
E|-------------------3-------------------------
                 ^^^^^                    ^^^
E|----------------------------------|---------------------------
B|----------------------------------|---------------------------
G|----------------------------------|---------------------------
D|------7---5~----------------------|------7---5~---------------
A|--5^7---7-----7p5-----------------|--5^7---7----7p5-----------
E|-------------------5--3~--0-------|------------------5--3~.---
                            ^^^
E|-----------------------|-----------------------|---------------------------|---
B|-----------------------|-----------------------|---------------------------|---
G|-----------------------|-----------------------|---------------------------|---
D|-----7---5-------------|-----7---5-------------|-----7---5-----------------|---
A|-5h7---7---7-5---------|-5h7---7---7-5---------|-5h7---7---7-5---------5-7-|---
E|---------------7p5-3-0-|---------------7p5-3/4-|---------------7p5-3-0-----|---

E|------------------|-----------------------|-----------------------|-------------
B|------------------|-----------------------|-----------------------|-------------
G|------------------|-----------------------|-----------------------|-------------
D|7---5-------------|-----7---5-------------|-----7---5-------------|-------------
A|--7---7-5---------|-5h7---7---7-5---------|-5h7---7---7-5---------|-------------
E|----------7\5-3b4-|---------------7p5-3-0-|---------------7p5-3b4-|-------------

E|--------------------------|-----------------------||---------------------|------
B|--------------------------|-----------------------||---------------------|------
G|--------------------------|-----------------------||---------------------|------
D|----7---5-----------------|-7---5-----------------||---5p2-----2---------|------
A|5h7---7---7-5---------5-7-|---7---7-5-------------||-------(3)---5/7-7-7-|------
E|--------------7p5-3-0-----|-----------7\5-3-5-6-7-||-0-------------------|------

E|----------------------|-----------------------|-------------------||------------
B|----------------------|-----------------------|-------------------||------------
G|----------------------|-----------------------|-------------------||------------
D|--5p2-----2---0-------|-5p2---x-2-------------|---5p2---2-0-------||------------
A|------x-2-------2-----|-----x-----5/7---7---x-|-x-----x-----2-----||------------
E|0-----------------3/4-|-------------------0---|---------------3/4-||------------
reproducciones 345
Acordes para:
    Composição: Don Henley / Glenn Frey / Joe Walsh Colaboración y revision:
    • Caio

    0 comentarios

    mostrar más comentarios

    ¿Conseguiste tocar?

    0 tocaron 0 aún no

    ¡Graba un vídeo tocando Life In The Fast Lane y envianoslo!

    00:00 / 00:00
    outros vídeos desta música
    repetir qualidade Automático
    Outros vídeos desta música
    00:00 / 00:00
    Automático
    OK