Cifra Club

Aprenda

The Sad Cafe

Eagles

Tab de bajo: Principal
|---------------------|
|-------2--4----------|
|----2------------2---|
|-2-----------2-------|

                                                       (4x)
|-----4r------4r-------------|--------4r------4r----------|
|---------2-----4------4r----|------------2-----4----4----|
|-2-----2------------------2-|----2-----2---------------2-|
|-----------------2------2---|-2------------------2-------|

|----4r-----4r-----------|--------4r------6r-----------|
|--------2----4----4r----|---------------------4-------|
|-2----2---------------2-|----2-----2-4------4-------2-|
|---------------2----2---|-2---------------------2-----|

|--------------------------------------------------------------------------------------|
|---4-6--6-6------6h8p6--------------------8-7-6--6-6-----------------------2-3-4--4-4-|
|-4----------6\----------4-5-6--6--6--6-6-------------6\--------2---4--4-4-------------|
|--------------4----------------------------------------4--4-4----4--------------------|
                    
                                                      x2
|--------4r-----4r-----------|------4r-----6r-----------|
|------------2----4----4r----|------------------4-------|
|----2-----2---------------2-|---2----2-4-----4-------2-|
|-2-----------------2----2---|-2-------------------2----|

|---------------------------|------------------------|
|-----------------------2-4-|------------------4-----|
|-9\------------------------|--------------------6-4-|
|----2--2-2--2-2--2-2-2-----|-2--2-2--2-2--2-2-------|

|------------------------|---------------------|
|--------------------2-4-|---------x-4--4-4----|
|------------------------|---------------------|
|-2--2-2--2-2--2-2-2-----|-2--2-2-----------9\-|

|--------------------------------------------------|
|----------------2-2-0-2-------------2----2-2------|
|---------------------------------------2----------|
|-0--0-0--0-0--0----------0--0-0--2----------0-1-2-|

|-------------------------------------------------|
|-------------4----4-4-2-4-----------4--4-4-------|
|--------------------------------------------5\-2-|
|-2-2--2-2--2----2---------2--2-2--2--------------|

|----------------------------|
|-2--4------------2--4-------|
|-------2-2----2-----------2-|
|------------2----------2----|

|----4r-----4r-----------|--------4r------6r-----------|
|--------2----4----4r----|---------------------4-------|
|-2----2---------------2-|----2-----2-4------4-------2-|
|---------------2----2---|-2---------------------2-----|

|--------------|----------------------|
|-------4------|----------2-3-4-------|
|-2--4-------2-|----2--4------------2-|
|---------2----|-2---------------2----|

|-------6r----------|----------------------|
|-----------4-------|----------2-3-4-------|
|-2--4----4-------2-|----2--4------------2-|
|--------------2----|-2---------------2----|

|-------6r----------|----------------------|
|-----------4-------|------------2-4-------|
|-2--4----4-------2-|----2--4--4---------2-|
|--------------2----|-2---------------2----|

|-----------------------|----------6r-----------|
|-----------2-3-4-------|--------------4--------|
|-----2--4------------2-|----2--4----4--------2-|
|-2-4--------------2----|-2----------------2----|

|-------------------------|
|-4-4---------2-3-4-------|
|-------2--4------------2-|
|-----2--------------2----|
Compositor Don Henley / Glenn Frey / J.D. Souther / Joe Walsh
Colaboración y revision:
  • Jefferson Sousa
18 reproducciones

0 comentarios

Mostrar mais comentários

¿Conseguiste tocar?

0 Tocaron 0 Ainda não

Grave um vídeo tocando The Sad Cafe e mande pra gente!

00:00 / 00:00
outros vídeos desta música
repetir qualidade Automático
Outros vídeos desta música
00:00 / 00:00
Automático
OK