Cifra Club

Try And Love Again

Eagles

Cifrado: Principal (guitarra y guitarra eléctrica)
tono: D
[Intro] D  G  D  G

D
When you're out there on your own
                        G
Where your memories can find you
                    D
Like a circle goes around

You were lost until you found out
                  G
What it all comes down to
G   F#m  Em       F#m              D
One by one, the lonely feelings come
G   F#m  Em       F#m           D
Day by day, they slowly fade away

D
Ooh, the look was in her eyes
                                G
You never know what might be found there
                            D
She was dancing right in time and the moves she made so fine
                        G
Like the music that surrounds her
G         F#m    Em       F#m          D
Should I stay or go? I really want to know
G     F#m  Em     F#m                  D
Would I lose or win if I try and love again?

Refrão
G                           D
Oh, I'm gonna try and love again
G                           D
Oh, I'm gonna try and love again
G                           D
Oh, I'm gonna try and love

[Solo]

E|-------------------------------------------------------------17-----------------|
B|-/15--15-17-| —19p17-19p17-17-15-----15-17b19-19p17-15-17-15------19p17-15-17---|
G|----------------------------------------------------------------------------14~-|
D|------------------------------17------------------------------------------------|
A|--------------------------------------------------------------------------------|
E|--------------------------------------------------------------------------------|

E|------11-9--------------------------------------------------------7------------------------------|
B|------------11--------------------------------------------7-8-10-----10-8-7----------------------|
G|-9b10-----------10b9~----7~----7~-----10b9~-7---7---7-----------------------9-7------------------|
D|----------------------9-----9~-----9~---------9---9---9--------------------------9-7-------------|
A|--------------------------------------------------------------------------------------10-9--7-5~-|
E|-------------------------------------------------------------------------------------------------|

D
Right or wrong, what's done is done
                                G
It's only moments that you borrow
                                D
But the thoughts will linger on of the lady and her song
                           G
When the sun comes up tomorrow
G       F#m    Em    F#m          D
Well it might take years to see through all these tears
G      F#m  Em       F#m             D
Don't let go, when you find that you will kno
Composición de Randy Meisner
Colaboración y revisión:
  • Caio Bertollo
  • VALDIR MAGALHAES
321 vistas
    • ½ Tono
    • A
    • Bb
    • B
    • C
    • Db
    • D
    • Eb
    • E
    • F
    • F#
    • G
    • Ab
  • Agregar a la lista

    0 comentarios

    Ver todos los comentarios

    ¿Lograste tocar?

    2 Tocaron 0 Aún no

    ¡Graba un video tocando Try And Love Again y envíanoslo!

    00:00 / 00:00
    Otros videos de esta canción
    Repetir Calidad Automático
    Otros videos de esta canción
    00:00 / 00:00
    Automático
    OK