Cifra Club

Aprenda

Bowl For Two

The Expendables

Tablatura: Principal (guitarra)
Tom: A
[Intro]

e|----------------------------------------------------------------------12---------------------------777-10-|
B|--------------------------------------3-------------------------------12---------------------------888-10-|
G|----------------------------------------------------------------------12---------------------------999-7--|
D|------------------0---0h2p0--0----2-2-2-2--------------0-0h2p0-0----2-12-------------0-0h2p0-0---2-999-7--|
A|--0---0h2p0---0-2---2------2------2-2-2-2---0-0h2p0-0-2-2-----2-----2-12--0-0h2p0-0-2-2-----2----2-777-7--|
E|3---3-------3------------------3-----------3-3-----3-------------3----12-3-3-----3-------------3---777-7--|

e|-77-----------------------------12--|
B|-88-----------------------------12--|
G|-99-----------------------------12--|
D|-99--------------0-0h2p0-0----2-12--|
A|-77---0-0h2p0-0-2-2-----2-----2-12--|
E|-77--3-3-----3-------------3----12--|


              G
But I said oh I
  Bm                   Em
I packed this bowl for two
    G
And I
     Bm                       Em
I’m gonna wanna smoke it with you

              G
But I said oh I
  Bm                   Em
I packed this bowl for two
    G
And I
     Bm                       Em
I’m gonna wanna smoke it with you


[Verse]


G       Bm         Em
Yes you know it is time
G         Bm             Em
For us to sit down and unwind
G                   Bm
I know the feeling, I know the feeling
   Em
So stay with me tonight
      G
Gonna kick back relax
Bm
Make sure the ganja’s packed
Em
And we’ll feel all right


[Bridge 1]


G
We’re flying high now
Bm
We’re flying high now
  Em
I cannot feel the ground
G
We’re flying high now
Bm
We’re flying high now
   Em
My world is spinning round


[Chorus]

              G
But I said oh I
  Bm                   Em
I packed this bowl for two
    G
And I
     Bm                       Em
I’m gonna wanna smoke it with you

              G
But I said oh I
  Bm                   Em
I packed this bowl for two
    G
And I
     Bm                       Em
I’m gonna wanna smoke it with you


[Bridge 2]

C                   Em
So please don’t run away
        
When my ganja’s all gone
C                            Em
Promise me that you’re gonna stay

When my flight is all done
C                             Em
There’s only one thing left to do
C
I got this one nug this frosty purple nug
         D
And it’s big enough for two


[Chorus]

              G
But I said oh I
  Bm                   Em
I packed this bowl for two
    G
And I
     Bm                       Em
I’m gonna wanna smoke it with you

              G
But I said oh I
  Bm                   Em
I packed this bowl for two
    G
And I
     Bm                       Em
I’m gonna wanna smoke it with you


[Solo]


e|----------------------------------------------12---------------------------|
B|-------------------------------------------15-----------15-----------------|
G|--14b---14p12h14---12-14-14b-p12---------12-----12--14b~~~~14--12-14-------|
D|---------------------------------14~---------------------------------14~---|
A|---------------------------------------------------------------------------|
E|---------------------------------------------------------------------------|

e|----------------------------------------------------------------|
B|----------------------------------------------------------------|
G|-----------12h14p12----------12h14h16---17--17--15h17-----------|
D|--12h14p12----------12h14h16------------------------------------|
A|----------------------------------------------------------------|
E|----------------------------------------------------------------|

e|--15-17-17b-p15----15~----15----15------------------------------------|
B|----------------17-----------15----17p-12----------------------15b(17)|
G|------------------------------------------12-14-14b-p12----12---------|
D|--------------------------------------------------------14------------|
A|----------------------------------------------------------------------|
E|----------------------------------------------------------------------|

[Bridge 1]

G
We’re flying high now
Bm
We’re flying high now
  Em
I cannot feel the ground
G
We’re flying high now
Bm
We’re flying high now
   Em
My world is spinning round

[Chorus]

              G
But I said oh I
  Bm                   Em
I packed this bowl for two
    G
And I
     Bm                       Em
I’m gonna wanna smoke it with you

              G
But I said oh I
  Bm                   Em
I packed this bowl for two
    G
And I
     Bm                       Em
I’m gonna wanna smoke it with you
Colaboración y revision:
  • Mateus Mattos
72 reproducciones
    • ½ Tom
    • A
    • Bb
    • B
    • C
    • Db
    • D
    • Eb
    • E
    • F
    • F#
    • G
    • Ab
  • Adicionar à lista

    0 comentarios

    Mostrar mais comentários

    ¿Conseguiste tocar?

    0 Tocaron 0 Ainda não

    Grave um vídeo tocando Bowl For Two e mande pra gente!

    00:00 / 00:00
    outros vídeos desta música
    repetir qualidade Automático
    Outros vídeos desta música
    00:00 / 00:00
    Automático
    OK