Cifra Club

Aprenda

Let Her Go

The Expendables

Tablatura: Principal (guitarra)
Tom: A
Tabbed by:Stoopidass18
Email:

Tuning:Standard

e|--2------5------5---------------------------------------------------------|
B|--2------7------5---------------------------------------------------------|
G|--2--x2--7--x2--4--x4-----------------------------------------------------|
D|--4------7------7---------------------------------------------------------|
A|--4------5------7---------------------------------------------------------|
E|--2-------------5---------------------------------------------------------|
  1.We've all been here before,
  2.It's not that I want to see him torn,
e|--------------------------------------------------------------------------|
B|--4----------------------7------------------------------------------------|
G|--4----------------------7------------------------------------------------|
D|--4----------------------7------------------------------------------------|
A|--2----------------------5------------------------------------------------|
E|--------------------------------------------------------------------------|
  *' and connivin' my insides are dyin'
  *' and connivin' I'm tired of tryin'
e|--5-----------------------------------------------------------------------|
B|--5-----------------------------------------------------------------------|
G|--4-----------------------------------------------------------------------|
D|--7-----------------------------------------------------------------------|
A|--7-----------------------------------------------------------------------|
E|--5-----------------------------------------------------------------------|
  * does it have to come to this
e|--7-----------------------------------------------------------------------|
B|--9-----------------------------------------------------------------------|
G|--9-----------------------------------------------------------------------|
D|--9-----------------------------------------------------------------------|
A|--7-----------------------------------------------------------------------|
E|--------------------------------------------------------------------------|
  1.to keep my cool, playin' the fool
e|--5------2------7------5--------------------------------------------------|
B|--5------2------9------7--------------------------------------------------|
G|--4--x4--2--x4--9--x4--7--x4----------------------------------------------|
D|--7------4------9------7--------------------------------------------------|
A|--7------4------7------5--------------------------------------------------|
E|--5------2----------------------------------------------------------------|
  * doesn't know,
  2.he doesn't know,

listen to the song for the rythm and the order
79 reproducciones
    • ½ Tom
    • A
    • Bb
    • B
    • C
    • Db
    • D
    • Eb
    • E
    • F
    • F#
    • G
    • Ab
  • Adicionar à lista

    0 comentarios

    Mostrar mais comentários

    ¿Conseguiste tocar?

    0 Tocaron 0 Ainda não

    Grave um vídeo tocando Let Her Go e mande pra gente!

    00:00 / 00:00
    outros vídeos desta música
    repetir qualidade Automático
    Outros vídeos desta música
    00:00 / 00:00
    Automático
    OK