Cifra Club

Strive Intro

The Expendables

Cifrado: Principal (guitarra y guitarra eléctrica)
tono: D
Tabbed by: Antone
Email: 

Tuning: Normal

e|------------------------------------------------|
B|-------10-8-7-------10-8-7-------10-8-7---------|
G|-----7------------7------------7----------------|x3
D|--/9-----------/9-----------/9------------------|
A|------------------------------------------------|
E|------------------------------------------------|

e|------------------------------------------------|
B|-------10-8-7------10-8-7--------10-8-7-8p7---7-|
G|-----7-----------7-------------7------------9---|
D|--/9-----------/9-----------/9------------------|
A|------------------------------------------------|
E|------------------------------------------------|

e|------------------------------------------------|
B|-------------------------------7-10-10/12-------|
G|--/7-6-6h7p6-----7---7-9/7-7h9------------------|
D|-------------9-9---9----------------------------|
A|------------------------------------------------|
E|------------------------------------------------|

e|------------------------------------------------|
B|------------------------------------------------|
G|--9p7-9b10r9p7-9p7---7-7/6-6h7p6----------------|
D|-------------------9-------------9--------------|
A|------------------------------------------------|
E|------------------------------------------------|


| /  slide up
| \  slide down
| h  hammer-on
| p  pull-off
| ~  vibrato
| +  harmonic
| x  Mute note
===============================================================================
00:00 / 00:00
Otros videos de esta canción
Repetir
Otros videos de esta canción
Compositor no encontrado.
14 vistas
    • ½ Tono
    • A
    • Bb
    • B
    • C
    • Db
    • D
    • Eb
    • E
    • F
    • F#
    • G
    • Ab
  • Agregar a la lista

    0 comentarios

    Ver todos los comentarios

    ¿Lograste tocar?

    0 Tocaron 0 Aún no

    ¡Graba un video tocando Strive Intro y envíanoslo!

    00:00 / 00:00
    OK