Cifra Club

Aprenda

Wells

The Expendables

Tablatura: Principal (guitarra)
Tom: G
Intro/Verse:
E|---------------------------------------------- 
B|---------------------------------------------- 
G|-------4------------7-------9----------------- 
D|---------------------------------------------- 
A|---------------------------------------------- 
E|---3------3-----7----- 7---8------------------ 

Chorus:
     Em         D       C       G       Em      D       C          D
e|---7-----------5--------3-------3--------7--------5------333-------5----- 
B|---8-----------7--------5-------3--------8--------7------555------7------ 
G|---9-----------7--------5-------4--------9--------7------555------7------ 
D|---9-----------7--------5-------5--------9--------7------555------7------ 
A|---7-----------5--------3-------5--------7--------5------355------5------ 
E|---7----------------------------3------7--------------------------------- 

       Em               D       C       G       Em      D       C         G
e|---7-----------5--------3-------3--------7--------5------3--------3------- 
B|---8-----------7--------5-------3--------8--------7------5--------3------- 
G|---9-----------7--------5-------4--------9--------7------5--------4------- 
D|---9-----------7--------5-------5--------9--------7------5--------5------- 
A|---7-----------5--------3-------5--------7--------5------3--------5------- 
E|---7----------------------------3--------7------------------------3------- 

        Bb          D
e|------11111------55555--------------- 
B|------33333------77777--------------- 
G|------33333------77777--------------- 
D|------33333------77777--------------- 
A|------11111------55555--------------- 
E|------------------------------------- 

Part 2:
base
e|----------------------------8---------------------------------------- 
B|--------3-----------7-------8---------------------------------------- 
G|--------4-----------7-------9----------[x2]-------------------------- 
D|--------4-----------7------10---------------------------------------- 
A|---------------------------10---------------------------------------- 
E|--------3-----------7-------8---------------------------------------- 

Chorus.
Compositor Adam Patterson / Garrett Dutton / Geoff Weers / Raul Bianchi / Ryan Demars / The Expendables
Colaboración y revision:
  • Luiz Ferraresi
23 reproducciones
    • ½ Tom
    • A
    • Bb
    • B
    • C
    • Db
    • D
    • Eb
    • E
    • F
    • F#
    • G
    • Ab
  • Adicionar à lista

    0 comentarios

    Mostrar mais comentários

    ¿Conseguiste tocar?

    0 Tocaron 0 Ainda não

    Grave um vídeo tocando Wells e mande pra gente!

    00:00 / 00:00
    outros vídeos desta música
    repetir qualidade Automático
    Outros vídeos desta música
    00:00 / 00:00
    Automático
    OK