Cifra Club

Não Devo Mais Ficar

The Fevers

Cifrado: Principal (guitarra y guitarra eléctrica)
Quer fazer aulas de música com a gente? Responda essas perguntas
e nos ajude nesse projeto! →
tono: C
      Am   F   C  G           C  G                   C
E|-------------------------------------------------
B|-------------------------------------------------
G|----------------2-0-----0------------------------
D|--------------------2-2--------------------------
A|--------------------------3------3-2-0-----3-----
E|---------------------------------------3-3-------

PASSAGENS 
G|-----------------
D|-----------------
A|---3-2-0------3--
E|----------3-3----




C
É você quem quer assim 

Vive a zombar de mim 
G               C
Eu sei já notei no seu olhar 

C
Quis fazer você feliz 

Mas nem isso você quis 
G               C     C7
Eu sei Tenho que ir embora 

F       G                C     G/B Am Am/G
Você pensou que eu não fosse lhe deixar 
F       G                C     G/B Am Am/G
Mas se enganou Eu não devo mais ficar 
 F        G               C
Vou viver sem ninguém 


C
Não pensei que tanto amor 

Me trouxesse tanta dor 
G                       C
Eu sei tudo foi um sonho a mais 

C
Eu bem sei que vou sofrer 

Pois não posso lhe esquecer 
G               C      C7
Eu sei mas prefiro a solidão 

F       G                C     G/B Am Am/G
Você pensou que eu não fosse lhe deixar 
F       G                C     G/B Am Am/G
Mas se enganou Eu não devo mais ficar 
 F        G               C
Vou viver sem ninguém 




                            C
E|-------------------------
B|-------------------------
G|---------2-0-----0-------
D|-------------2-2---------
A|-------------------3-----
E|-------------------------


Essa cifra eu dedico a minha eterna namorada Juliani Pinzon, a qual é a razão do meu viver e a razão 
pela qual eu sigo em frente.
Ricardo M.
Composición de The Fevers
Colaboración y revisión:
  • Ricardo MOnteiro
363 vistas
    • ½ Tono
    • A
    • Bb
    • B
    • C
    • Db
    • D
    • Eb
    • E
    • F
    • F#
    • G
    • Ab
  • Agregar a la lista

    0 comentarios

    Ver todos los comentarios

    ¿Lograste tocar?

    0 Tocaron 1 Aún no

    ¡Graba un video tocando Não Devo Mais Ficar y envíanoslo!

    00:00 / 00:00
    Outros vídeos desta música
    Repetir Calidad Automático
    Outros vídeos desta música
    00:00 / 00:00
    Automático
    OK