Cifra Club

Querida( Cherie Sha La La)

The Fevers

Cifrado: Principal (guitarra y guitarra eléctrica)
Já pensou em usar uma coleção de roupas do Cifra Club? Responda as perguntas abaixo e nos ajude nessa missão! →
tono: Db
Intro: Bbm

Parte:1
     Bbm
    2x
E|--6-9-8-9-6-9-8-9-6-9-8-9-6----------|
B|-------------------------------------|
G|-------------------------------------|
D|-------------------------------------|
A|-------------------------------------|
E|-------------------------------------|

Parte:2
    Bbm
    Sonhei...
E|--6-9-8-9-6-9-8-9-6-9-8-9-6----------|
B|-------------------------------------|
G|-------------------------------------|

    F
 ...ser...
E|--5-8-6-8-5-8-6-8-5-8-6-8-5----------|
B|-------------------------------------|
G|-------------------------------------|

    Db
    Ter...
E|--9-13-11-13-9-13-11-13-9-13-11-13-9-|
B|-------------------------------------|
G|-------------------------------------|

    Ab
 ...meu...
E|----11-8-11---11-8-11---11-8-11------|
B|--9---------9---------9---------9----|
G|-------------------------------------|
    Bbm
    Tudo...   
E|--6-9-8-9-6-9-8-9-6-9-8-9-6----------|
B|-------------------------------------|
G|-------------------------------------|

    F
    Eu...
E|--5-8-6-8-5-8-6-8-5-8-6-8-5----------|
B|-------------------------------------|
G|-------------------------------------|




Bbm           F
Sonhei,um dia ser feliz
Db
Ter alguém(ter alguém)
          Ab
Pra dar o meu amor
Bbm
Tudo que eu quis(tudo que eu quis)
F
Eu não consegui(eu não consegui)
Bbm                 Ebm
Só agora eu sei que tudo é ilusão
Ab                     Db  F
Você não quer me dar valor
Bbm                 Ebm
Só agora eu sei         que tudo é ilusão
F                      Bb
Você não quer me dar valor

Querida eu quero o seu carinho
Eu quero ser seu dono
                Cm
Eu quero o seu amor
Querida a minha vida é triste
             F
Porque nela existe
       F7     Bb
Só tristeza e dor
Querida se você soubesse
            Bb7
Que esta saudade
                Eb
Já não tem mais fim
   Ebm          Bb
Eu sei que voltaria
             F
Não me deixaria
         Bb
Sofrer assim
(Introdução:parte 1,e parte 2)

Bbm                 F
Nunca mais, eu vou acreditar
Db
Outro alguém (outro alguém)
       Ab
Vier falar de amor
Bbm
Eu não quero mais (eu não quero mais)
F
Chega de esperar (chega de esperar)
Bbm                Ebm
Eu não vou ficar sozinho sem ninguém
Ab                      Db  F
Você tem que voltar pra mim
Bbm                Ebm
Eu não vou ficar sozinho sem ninguém
F                       Bb
Você tem que voltar pra mim
(Repete 2ª)

B
Querida eu quero o seu carinho
Eu quero ser seu dono
                Dbm
Eu quero o seu amor
Querida a minha vida é triste
             Gb
Porque nela existe
       Gb7    B
Só tristeza e dor
Querida se você soubesse
            B7
Que esta saudade
                E
Já não tem mais fim
   Em           B
Eu sei que voltaria
            Gb
Não me deixaria
         B
Sofrer assim

La la, la la la la la
La la la la la
            Dbm
La la la la la 
La la, la la la la la
            Gb
La la la la la
      Gb7   B
La la la la la
Composición de C.Gordanne/Jean Van Loo/Ian Wira/Versão:Rossini Pinto
Colaboración y revisión:
  • Manoel
18 vistas
    • ½ Tono
    • A
    • Bb
    • B
    • C
    • Db
    • D
    • Eb
    • E
    • F
    • F#
    • G
    • Ab
  • Agregar a la lista

    0 comentarios

    Ver todos los comentarios

    ¿Lograste tocar?

    0 Tocaron 0 Aún no

    ¡Graba un video tocando Querida( Cherie Sha La La) y envíanoslo!

    00:00 / 00:00
    Outros vídeos desta música
    Repetir Calidad Automático
    Outros vídeos desta música
    00:00 / 00:00
    Automático
    OK