Cifra Club

Flathead

The Fratellis

Tab de bajo: Principal
Selo Cifra Club: esta cifra foi revisada para atender aos critérios oficiais da nossa Equipe de Qualidade.
tono: Afinación:
Standard tuning
Tabbed by pat murphy (basstard21)

Verse, play once then rest and repeat as needed
G------------------|
D-3-3--------------|
A-----3-3----------|
E---------0-0-5-55-|

Bridge
G----------------------------------------|
D----------------------------------------|
A----------------------------------------|
E-1-1--1--1--3-3-3--3-1-1--1--1--3-3-3-3-|

Chorus
G---------------------------------------------|
D---------2--0--------------------------------|
A--3--3-3-------3--2--0------------0--2--3--5-|
E-----------------------1--1-1--3-------------|
Otros videos de esta canción
    636 exhibiciones

    Afinación de cifrado

    Afinador online

    OK