Cifra Club

Little House

The Fray

Tablatura: Principal (guitarra)
Tom: C
tune down a half step to play along with the cd

chorus
e|----------------|
B|----------------|
G|--2---7---2---4-|
D|2-2-5-7-2-2-5-4-|
A|2-0-5-5-2-0-5-2-|
E|0---3---0---3---|

post chorus/ verse
e|----------------------|
B|----------------------|
G|----------------------|
D|x-x-10-10p9-----------|
A|------------9-9h10----|
E|-------------------7/-|

solo
e|------------------------------------------------|
B|---12-------------------------------------------|
G|------12----12-11----------------------11h12----|
D|14-------14-------14-16-14-------13-14-------14-|
A|---------------------------14-15----------------|
E|------------------------------------------------|

that's all i've got enjoy!!
reproducciones 63
Acordes para:
    Composição: Isaac Slade / Joe King

    0 comentarios

    mostrar más comentarios

    ¿Conseguiste tocar?

    0 tocaron 0 aún no

    ¡Graba un vídeo tocando Little House y envianoslo!

    00:00 / 00:00
    outros vídeos desta música
    repetir qualidade Automático
    Outros vídeos desta música
    00:00 / 00:00
    Automático
    OK