Cifra Club

Johnny B

The Hooters

Cifrado: Principal (guitarra y guitarra eléctrica)
Selo Cifra Club: esta cifra foi revisada para atender aos critérios oficiais da nossa Equipe de Qualidade.
tono: F
Tabs: Jonester

Intro and PART B (PART B is only the comp, but if you got 2 guitars then both)

e|-----------------------------------------------|
h|----5-55---------------------------------------|
g|5-7------7-5-4---7--5-4-------4-5-5h7-5-4------|
d|---------------7---------7--7-------------7-5-7|
a|-----------------------------------------------|
e|-----------------------------------------------|

This comes 2 times. At second time with comp. 

comp:
e|--------------------------------------------------------|
h|--------------------------------------------------------|
g|--------------------------------------------------------|
d|-7---7---3---3---5---5---7---7---3---3---5---5---7---7--|
a|-7---7---3---3---5---5---7---7---3---3---5---5---7---7--|
e|-5-5-5-5-1-1-1-1-3-3-3-3-5-5-5-5-1-1-1-1-3-3-3-3-5-5-5-5|



PART A

"It's a sleepless night..."
e|----------------------------| Play
h|----------------------------| this
g|----------------------------| four
d|-----7--------10--------7---| times
a|---7---7---10----10---7---7-| ...
e|-5-------8----------5-------|

"Again and again..."
e|----------------------------| ...
h|----------------------------| this
g|-----7--------10--------7---| two
d|---7---7---10----10---7---7-| times
a|-5-------8----------5-------|
e|----------------------------|

"But Johnny my friend..."
e|-----------------------------------------------|
h|-----------------------------------------------|
g|--------------------------------7--------10----|
d|-----7--------10--------7-----7---7---10----10-|
a|---7---7---10----10---7---7-5-------8----------|
e|-5-------8----------5--------------------------|



PART B two times.

PART A

PART B two times

SOLO (somebody who knows how to do it, should do the solo tabs :D)

PART A

PART B to the end (ritartando)
Otros videos de esta canción
    188 exhibiciones
      • ½ Tono
      • A
      • Bb
      • B
      • C
      • Db
      • D
      • Eb
      • E
      • F
      • F#
      • G
      • Ab
    • Agregar a la lista

    Afinação da cifra

    Afinador online

      Ops (: Contenido disponible solo en portugués.
      OK