Cifra Club

Wrong

The Kid LAROI

Cifrado: Principal (guitarra y guitarra eléctrica)
Selo Cifra Club: esta cifra foi revisada para atender aos critérios oficiais da nossa Equipe de Qualidade.
tono: C
GUITAR 1:
E|--0--------------------------------------|
B|--1------0-------------------------------|
G|--2------------2-------------------------|
D|--2------------3-------------------------|
A|---------------3-------------------------|
E|---------------1-------------------------|

E|---------------0-------------------------|
B|---------0-----1-------------------------|
G|---2-----------2-------------------------|
D|---3-----------2-------------------------|
A|---3-------------------------------------|
E|---1-------------------------------------|

E|--0--------------------------------------|
B|--1------0-------------------------------|
G|--2------------2-------------------------|
D|--2------------3-------------------------|
A|---------------3-------------------------|
E|---------------1-------------------------|

E|---------------0-------------------------|
B|---------0-----1-------------------------|
G|---2-----------2-------------------------|
D|---3-----------2-------------------------|
A|---3-------------------------------------|
E|---1-------------------------------------|

GUITAR 2:
E|---------------0-------------------------|
B|------1----------------------------------|
G|-----------2-----------------------------|
D|-----------------------------------------|
A|-----------------------------------------|
E|-----------------------------------------|

E|--5p3p0----------------------------------|
B|------------3h5------------------3-------|
G|--------------------2-----------------5--|
D|-----------------------------------------|
A|-----------------------------------------|
E|-----------------------------------------|

E|-----------------------------------------|
B|-------------------------1-----3/5----3--|
G|-------------------2---------------------|
D|-----------------------------------------|
A|-----------------------------------------|
E|-----------------------------------------|

E|----------------8--7--5-----5------------|
B|-------------------------8--------5---3--|
G|-----------------------------------------|
D|-----------------------------------------|
A|-----------------------------------------|
E|-----------------------------------------|

Pattern repeats for the rest of the song.


************************************

| p  Pull-off
| h  Hammer-on
| /  Slide up
Otros videos de esta canción
    69 exhibiciones
      • ½ Tono
      • A
      • Bb
      • B
      • C
      • Db
      • D
      • Eb
      • E
      • F
      • F#
      • G
      • Ab
    • Agregar a la lista

    Afinación de cifrado

    Afinador online

      OK