Cifra Club

Don't Shoot Me Santa

The Killers

Tablatura: Principal (guitarra)
tono: Eb
Verse

e|------------------------------------------------------------------------------------|
b|----8------8------4-----4-------6-----6-------8------8-------4-----4------4-----4---|
g|---8--8---8-8----5-5---5-5-----7-7---7-7-----8--8---8-8-----5-5---5-5----5-5---5-5--|
d|--8----8-8---8--6---6-7---7---8---8-8---8---8----8-8---8---5---5-5---5--6---6-6---6-|
a|-6------6----------------------------------6------6-------3-----3-----3-------------|
e|---------------4-----5-----5-6-----6-----6-----------------------------4-----4------|
  Eb     Eb     Ab    adim(?) Bb    Bb     Eb     Eb       Cm   Cm      Ab    Ab     A 
in your what?

e|-----
b|-6---
g|-7---
d|-6---
a|-8---
e|-6---

  Bb7
  (Santa's got a bullet in his gun,
you know it,
Santa's got a bullet in his gun)

Chorus

e|----------------------------------------------------------------------------------------|
b|----------------------------------------------------------------------------------------|
g|-8--------------------------------------------------------------------------10----------|
d|-8---------------------------8-----------------9----------------------------10----------|
a|-6---------------------------8-----------------8----------------------------8-----------|
e|-----------------------------6-----------------7----------------------------------------|
Don't shoot me Santa Claus,   I promise you,did     every little thing you   asked me to,
I've been a clean livin boy,

e|------------------------------------------------------------|
b|------------------------------------------------------------|
g|------------------------------------------------------------|
d|-8-------------------------------------6--------------8-----|
a|-8-------------------------------------6--------------8-----|
e|-6-------------------------------------4--------------6-----|
  and I can't believe the things I'm    goin through,

repeat chorus

2nd verse

e|------------------------------------3--3--3--3-------------------|
b|--8---8----4----4----8---8----6--6--4--4--4--4----4--4---6--6--6-|
g|--8---8----5----5----8---8----7--7--5--5--5--5----5--5---7--7--7-|
d|--8---8----6----7----8---8----8--8--5--5--5--5----6--6---6--8--6-|
a|--6---6----6----6----6---6----8--8--3--3--3--3----6--6---8--8--8-|
e|-----------4----5-------------6--6----------------4--4---6--6--6-|

Repeat chorus

bridge  (tubolar bells arranged for guitar)

e|--11-13-10-11-8-10-6-8-4-6-3-4-1-3-----x 4 times--------|
b|-----------------------------------4-6----------3-4---8-|
g|------------------------------------------------------8-|
d|------------------------------------------------------8-|(repeat the chord x 4 bar)
a|------------------------------------------------------4-|
e|--------------------------------------------------------|

solo(Over chords of chorus)
   tremolo picking
e|--11-10-13-10-11-10-13-10-11-10-13-10-11-10-13-18b-15-16b(17)-|
b|--------------------------------------------------------------|
g|--------------------------------------------------------------|
d|--------------------------------------------------------------|
a|--------------------------------------------------------------|
e|--------------------------------------------------------------|

e|----11-10-13-10-11-10-13-10-11-10-8-10-6-8-4-6-3-4-1-3---------|
b|-------------------------------------------------------4-6-3-4-|
d|---------------------------------------------------------------|
g|---------------------------------------------------------------|
a|---------------------------------------------------------------|
e|---------------------------------------------------------------|

final chorus

e|----------------------------------------------------------------------------------------|
b|----------------------------------------------------------------------------------------|
g|-8--------------------------------------------------------------------------10----------|
d|-8---------------------------8-----------------9----------------------------10----------|
a|-6---------------------------8-----------------8----------------------------8-----------|
e|-----------------------------6-----------------7----------------------------------------|

e|------------------------------------------------------------|
b|------------------------------------------------------------|
g|------------------------------------------------------------|
d|-8-------------------------------------6--------------8-----|
a|-8-------------------------------------6--------------8-----|
e|-6-------------------------------------4--------------6-----|

e|--11-13-10-11-8-10-6-8-4-6-3-4-1-3-----|
b|-----------------------------------4-6-| x 2(played over Bb chord)
g|---------------------------------------|
d|---------------------------------------|
a|---------------------------------------|
e|---------------------------------------|

outro

e|----3--------|
b|-8--4--4--6--|
g|-8--5--5--7--|
d|-8--5--6--8--|
a|-4--3--6--8--|
e|-------4--6--|

o santa..o santa...
Composição de Brandon Flowers / The Killers
Colaboración y revision:
  • Élison Duarte
219 reproducciones
  • Simplificar cifra
    • ½ Tono
    • A
    • Bb
    • B
    • C
    • Db
    • D
    • Eb
    • E
    • F
    • F#
    • G
    • Ab
  • Adicionar à lista

    0 comentarios

    Ver todos os comentários

    ¿Conseguiste tocar?

    0 Tocaram 0 Ainda não

    Grave um vídeo tocando Don't Shoot Me Santa e nos envie!

    00:00 / 00:00
    outros vídeos desta música
    repetir qualidade Automático
    Outros vídeos desta música
    00:00 / 00:00
    Automático
    OK