Cifra Club

Aprenda

Everything Will Be Alright Solo

The Killers

Tablatura: Principal (guitarra)
tono: Bb
Hey, I noticed the complete lack of a tab for this solo at the end of 'Everything
tab is pretty accurate and follows the solo well. Just play about with it and make
it fit, I've added some timings so people can get a better idea of where they are :)

4.43                                 4.51
-14b-14b-14b----14b-14b-14b----------------------------------------------|
-------------16-------------16-16s18-16-16s13-13h16----------------------|
----------------------------------------------------15-13h15-12-13-13s12-|
-------------------------------------------------------------------------|
-------------------------------------------------------------------------|
-------------------------------------------------------------------------|

4.59                                                    5.07
-11---------------------------------------------------------------------|
----------16------------------------------------------------------------|
----12h13---15-13-12-----12v---12v---12v---10h12------------------------|
--------------------15-13------------------------13-13s15s13-10h13------|
------------------------------------------------------------------------|
------------------------------------------------------------------------|

                                5.15
------------------------------------------------------------------------|
--------------------------------------------------------16--------------|
-----------------------------------------------12-13-12----15-12-15-12--|
--------------------------------13s15-15-13-15--------------------------|
-13-11h13-10-11-11s13s11-11s10v-----------------------------------------|
------------------------------------------------------------------------|

                                      5.25
------------------------------------------------------------------------|
------------------------------------------------------------------------|
-12h13----12v---12v---12v---10h12------------------12s13-13-13s17-17s19-|
-------15-------------------------10-10s13-13s15-15---------------------|
------------------------------------------------------------------------|
------------------------------------------------------------------------|

-------------|
-------------|
-19s20vvvvv--|
-------------|
-------------|

The last bit post 5.25 is not perfect and is quick and quite tricky, it does seem to 
a major scale upto fret 20 so play around and see if you can improve on it :)

Any corrections email me at *
Composição de Brandon Flowers
68 reproducciones
    • ½ Tono
    • A
    • Bb
    • B
    • C
    • Db
    • D
    • Eb
    • E
    • F
    • F#
    • G
    • Ab
  • Adicionar à lista

    0 comentarios

    Ver todos os comentários

    ¿Conseguiste tocar?

    0 Tocaram 0 Ainda não

    Grave um vídeo tocando Everything Will Be Alright Solo e nos envie!

    00:00 / 00:00
    outros vídeos desta música
    repetir qualidade Automático
    Outros vídeos desta música
    00:00 / 00:00
    Automático
    OK