Cifra Club

For Reasons Unknown

The Killers

Tablatura: Versão 3 (guitarra)
Já pensou em usar uma coleção de roupas do Cifra Club? Responda as perguntas abaixo e nos ajude nessa missão! →
tono: Ab
Track 5

Tabbed by Dangerous Dave


   PM..............................................................
e------------------------------------------------------------------|
B------------------------------------------------------------------|
G------------------------------------------------------------------|
D------------------------------------------------------------------|
A--6-6-6-6-6-6-6-6-6-6-6-6-6-6-6-6-6-6-6-6-6-6-6-6-6-6-6-6-6-6-6-6-|
E--4-4-4-4-4-4-4-4-4-4-4-4-4-4-4-4-4-4-4-4-4-4-4-4-4-4-4-4-4-4-4-4-|

   PM..............................................................
e------------------------------------------------------------------|
B------------------------------------------------------------------|
G------------------------------------------------------------------|
D--8-8-8-8-8-8-8-8-8-8-8-8-8-8-8-8---------------------------------|
A--6-6-6-6-6-6-6-6-6-6-6-6-6-6-6-6-8-8-8-8-8-8-8-8-8-8-8-8-8-8-8-8-|
E----------------------------------6-6-6-6-6-6-6-6-6-6-6-6-6-6-6-6-|

e-----|
B-----|
G-----| LET CHORD RING OUT
D--6--|
A--6--|
E--4--|

VERSE PART 1
e------------------------------------------------------------------|
B------------------------------------------------------------------|
G--8-8-8-8-8-8-8-8-8-8-8-8-8-8-8-8-8-8-8-8-8-8-8-8-8-8-8-8-8-8-8-8-|
D--6-6-6-6-6-6-6-6-6-6-6-6-6-6-6-6-6-6-6-6-6-6-6-6-6-6-6-6-6-6-6-6-|
A------------------------------------------------------------------|
E------------------------------------------------------------------|

e------------------------------------------------------------------|
B------------------------------------------------------------------|
G------------------------------------------------------------------|
D--8-8-8-8-8-8-8-8-8-8-8-8-8-8-8-8-3-3-3-3-3-3-3-3-4-4-4-4-4-4-4-4-|
A--6-6-6-6-6-6-6-6-6-6-6-6-6-6-6-6-1-1-1-1-1-1-1-1-2-2-2-2-2-2-2-2-|
E------------------------------------------------------------------|

e------------------------------------------------------------------|
B------------------------------------------------------------------|
G------------------------------------------------------------------|
D--5-5-5-5-5-5-5-5-5-5-5-5-5-5-5-5---------------------------------|
A--3-3-3-3-3-3-3-3-3-3-3-3-3-3-3-3-6-6-6-6-6-6-6-6-6-6-6-6-6-6-6-6-|
E----------------------------------4-4-4-4-4-4-4-4-4-4-4-4-4-4-4-4-|

e------------------------------------------------------------------|
B------------------------------------------------------------------|
G------------------------------------------------------------------|
D--8-8-8-8-8-8-8-8-8-8-8-8-8-8-8-8-3-3-3-3-3-3-3-3-4-4-4-4-4-4-4-4-|
A--6-6-6-6-6-6-6-6-6-6-6-6-6-6-6-6-1-1-1-1-1-1-1-1-2-2-2-2-2-2-2-2-|
E------------------------------------------------------------------|

e--------------------------------------------------------------------------|
B--------------------------------------------------------------------------|
G--8-8-8-8-8-8-8-8-7-7-7-7-3-3-3-3-----------------------------------------|
D----------------------------------5-5-5-5-5-5-5-5-12-12-12-12-12-12-12-12-|
A--6-6-6-6-6-6-6-6-5-5-5-5-1-1-1-1-----------------------------------------|
E----------------------------------3-3-3-3-3-3-3-3-10-10-10-10-10-10-10-10-|

e-----|
B-----|
G-----| LET CHORD RING OUT
D--6--|
A--6--|
E--4--|

VERSE PART 1
VERSE PART 2
CHORUS

e-----------------------------------------------------------------|
B-----------------------------------------------------------------|
G-----------------------------------------------------------------|
D--8-8-8-8-8-8-8-8--10-10-10-10-10-10-10-12-12-12-12-12-12-12-12--|
A--6-6-6-6-6-6-6-6---8--8--8--8--8--8--8-10-10-10-10-10-10-10-10--|
E-----------------------------------------------------------------|

e--------------------------|
B--------------------------|
G--------------------------|
D--13-13-13-13-13-13-13-13-|
A--11-11-11-11-11-11-11-11-|
E--------------------------|

VERSE PART 2

END ON
e-----|
B-----|
G--8--| LET CHORD RING OUT
D--8--|
A--6--|
E-----|

SOUNDS GOOD PLAYED ALONG WITH THE RECORD!! ENJOY
Composição de Brandon Flowers
17 reproducciones
    • ½ Tono
    • A
    • Bb
    • B
    • C
    • Db
    • D
    • Eb
    • E
    • F
    • F#
    • G
    • Ab
  • Adicionar à lista

    0 comentarios

    Ver todos os comentários

    ¿Conseguiste tocar?

    0 Tocaram 0 Ainda não

    Grave um vídeo tocando For Reasons Unknown e nos envie!

    00:00 / 00:00
    outros vídeos desta música
    repetir qualidade Automático
    Outros vídeos desta música
    00:00 / 00:00
    Automático
    OK