Cifra Club

For Reasons Unknown

The Killers

Tab de bajo: Principal
Tabbed By : Ben
e-mail: *

Tuning: Standard
Time Signature: 4/4

     I think everything is about right, I'm not QUITE sure about the chorus but thats 
I hope this helps, i think its about 95% right. Thanks, and RATE THIS PLEASE! It is my 
tab.

                              (INTRO)
                      Enter after 8 measures
G|-------------------------------------------------------------------------|
D|-6-6-x8--5-5-x4--3-3-x4--1-(hold for 8 beats)----------------------------|
A|-------------------------------------------------------------------------|
E|-------------------------------------------------------------------------|
                              (VERSE)
                         steady 8th notes
G|-------------------------------------------------------------------------|
D|-6-x32--5-x16--3-x8------------------------------------------------------|
A|-------------------5-x8--------------------------------------------------|
E|-------------------------------------------------------------------------|
                            (PRE-CHORUS) x2
                          steady 8th notes
G|-------------------------------------------------------------------------|
D|-------------------------------------------------------------------------|
A|-3-x16---------6-x10--8-x8--10-x8----------------------------------------|
E|--------4-x16------------------------------------------------------------|
                             (CHORUS) x2

G|-------------------------------------------------------------------------|
D|-------------------------------------------------------------------------|
A|---------------7-x8--5-x8--3-Hold----------------------------------------|
E|-2-x8--2-x8--------------------------------------------------------------|
                             Verse - x1
                        Pre Chorus - x2
                            Chorus - x3
                        Pre Chorus - x2
                            Chorus - x4
      ============================================================================| /  
up
| \  slide down
| h  hammer-on
| p  pull-off
| ~  vibrato
| +  harmonic
| x  Mute note
============================================================================
Composição de Brandon Flowers
71 reproducciones

0 comentarios

Ver todos os comentários

¿Conseguiste tocar?

0 Tocaram 0 Ainda não

Grave um vídeo tocando For Reasons Unknown e nos envie!

00:00 / 00:00
outros vídeos desta música
repetir qualidade Automático
Outros vídeos desta música
00:00 / 00:00
Automático
OK