Cifra Club

From Here On Out

The Killers

Cifrado: Principal (guitarra y guitarra eléctrica)
tono: B
Obs: uso do slider
E|-----------------------------------------------|
B|-----------------------------------------------|
G|-----------------------------------------------|
D|---9/13 13/11---11 11--11/9---11-11---9--------|
A|-------------------------------------9---------|
E|-----------------------------------------------|

E|-----------------------------------------------|
B|-----------------------------------------------|
G|-----------------------------------------------|
D|---9/16--16/14--14-14/13--13-13/14----14/9----9|
A|-------------------------------------------9---|
E|-----------------------------------------------|

B
A little birdie whispered in my ear,
E                      F#      B
You been cooking up a world of fear,
B
Put your hands in things you shouldn't have known,
E                  F#       B
You was riding in the danger zone

E                                      F#
Well you had us all fooled with your quarter back smile,
G#M                        F#
And your crocodile tears there for a while,
E                                         F#
Got my paradigm shifting, man, you're making me shout

B
Hey, from here on out,
E           Eb
Friends are gonna be hard to come by,
F#                G#M
Left us wondering what it all was about,
E                Eb
You had it easy man you chose the hard way,
F#             G#M          F#       E
Walk that old lonely road in a shadow of a doubt,
B
From here on out
E|-----------------------------------------------|
B|-----------------------------------------------|
G|-----------------------------------------------|
D|---9/13 13/11---11 11--11/9---11-11---9--------|
A|-------------------------------------9---------|
E|-----------------------------------------------|

E|-----------------------------------------------|
B|-----------------------------------------------|
G|-----------------------------------------------|
D|---9/16--16/14--14-14/13--13-13/14----14/9----9|
A|-------------------------------------------9---|
E|-----------------------------------------------|

B
Should I pass over the side and cross?
E                      F#      B
You may wonder what the trouble cost
B
That don't matter now life goes on
E                  F#       B
Hallelujah, the trouble's gone!

E                                      F#
No sense in holding grudges in this 32 years
G#M                        F#
These are things I must learn to practice while I live,
E                                         F#
Got my paradigm shifting man you're making me shout:

B
Hey, from here on out,
E           Eb
Friends are gonna be hard to come by,
F#                G#M
Left us wondering what was it was all about,
E                Eb
You had it easy man chose the hard way,
F#             G#M          F#       E
Walk that old lonely road in a shadow of a doubt.

B
Hey, from here on out,
E           Eb
Let the people pull the peace sign
F#                G#M
Left us wondering what it's all about,
E                Eb
You been denied but you carried it with ya,
F#             G#M          F#       E
Down that old lonely road in a shadow of a doubt,
B
Yeah from here on out
E|-----------------------------------------------|
B|-----------------------------------------------|
G|-----------------------------------------------|
D|---9/13 13/11---11 11--11/9---11-11---9--------|        2x
A|-------------------------------------9---------|
E|-----------------------------------------------|

E|-----------------------------------------------|
B|-----------------------------------------------|
G|-----------------------------------------------|
D|---9/16--16/14--14-14/13--13-13/14----14/9----9|            2x
A|-------------------------------------------9---|
E|-----------------------------------------------|
00:00 / 00:00
Otros videos de esta canción
Repetir
Otros videos de esta canción
Composición de Brandon Flowers / The Killers
Colaboración y revisión:
  • Victor Eller
62 vistas
    • ½ Tono
    • A
    • Bb
    • B
    • C
    • Db
    • D
    • Eb
    • E
    • F
    • F#
    • G
    • Ab
  • Agregar a la lista

    0 comentarios

    Ver todos los comentarios

    ¿Lograste tocar?

    2 Tocaron 0 Aún no

    ¡Graba un video tocando From Here On Out y envíanoslo!

    00:00 / 00:00
    OK