Cifra Club

Mr Brightside

The Killers

Cifrado: Versão 2 (guitarra y guitarra eléctrica)
Selo Cifra Club: esta cifra foi revisada para atender aos critérios oficiais da nossa Equipe de Qualidade.
tono: D
E|----------0--------------0--------------0--------------0--------|
B|-----------17-------------17-------------17-------------17------|
G|-----19------19-----19------19------19-----19------19-----19----|
D|---16--16------0--16--16------0---16--16-----16--16--16-----0---|
A|-17-------------16----------------------------------------------|
E|--------------------------------15-------------15---------------|

[VERSE]  0:13 and 1:43
Play INTRO 4 times

[Pre-Chorus]  :39 and 2:09
PART 1
    chest.............................dress............................
E|----------0---------------0----------------0----------------0--------|
B|------------5---------------5----------------5----------------5------|
G|------7-------7-------7-------7---------7------7--------7-------7----|
D|----0---0-------0---0---0-------0-----7---7------7----7---7-------0--|
A|------------------------------------0--------------0-----------------|
E|--7---------------7--------------------------------------------------|

[Pre-Chorus]
PART 2
  ..go.......
E|---------0-----------------0----------------0----------------0-------|
B|-----------5-----------------5----------------5----------------5-----|
G|-----7-------7--------7--------7--------7-------7--------7-------7---|
D|---0---0-------0----0---0--------0----0---0-------0----0---0-------0-|
A|---------------------------------------------------------------------|
E|-3----------------3-----------------3----------------3---------------|

[Fill]   0:52 and 2:23
Play [Pre-Chorus] Part 1 and 2 once
   I just can't look...

Repeat [Pre-Chorus] PART 2
..taking control...

[CHORUS]    1:05 and 2:35
PART 1 - Play twice
   Jealousy...................................Turning.........
E|-----------------------------------------------------------------------|
B|-----------------------------------------------------------------------|
G|--11--11--11--11---12--12--12--12---14--14--14--14---9---7---6---7-----|
D|----12--12--12--12---12--12--12--12---12--12--12---0---7---7---7---7---|
A|-----------------------------------------------------------------------|
E|-----------------------------------------------------------------------|

PART 2 - play twice
   price............................calling..........Open...........
Guitar 1
E|----------------------------------------------------------------------|
B|-10----10----10---12----12----12---15----15----15---------------------|
G|---11----11-----0---12----12-----0---14----14-----0-9---7---6---7-----|
D|-----12----12---------12----12---------12----12-------7---7---7---7---|
A|----------------------------------------------------------------------|
E|----------------------------------------------------------------------|


Eager eyes............

Repeat CHORUS - PART 2 once

Repeat CHORUS - PART 1 twice

[VERSE]  1:43

[INTRO] 4 times

[PD-C HORUS]  2:09

[CHORUS]    2:35

[INTERLUDE]  2:55
E|-------------------------------------------------------------------|
B|-------------------------------------------------------------------|
G|-11--11--12--14--12--14--12--11--11--11--12--11-0--9---7---6---7---|
D|---12--12--12--12--12--12--12--12--12--12--12---0----7---7---7---7-|
A|-------------------------------------------------------------------|
E|-------------------------------------------------------------------|

[OUTRO]   3:14
PART 1 - Play 3 times
   I never................
E|-------------------------------------------------------------------|
B|-------------------------------------------------------------------|
G|-11--11--11--11--12--12--12--12--14--14--14--14---9---7---6---7----|
D|---12--12--12--12--12--12--12--12--12--12--12---0---7---7---7---7--|
A|-------------------------------------------------------------------|
E|-------------------------------------------------------------------|


                                              [Synthesizer and guitar]
                                              [arranged for guitar] 
[OUTRO]   Both Guitars                          |  |  |   |
Otros videos de esta canción
    18 exhibiciones
      • ½ Tono
      • A
      • Bb
      • B
      • C
      • Db
      • D
      • Eb
      • E
      • F
      • F#
      • G
      • Ab
    • Agregar a la lista

    Afinação da cifra

    Afinador online

      Ops (: Contenido disponible solo en portugués.
      OK