Cifra Club

Somebody Told Me

The Killers

Cifrado: Versão 2 (guitarra y guitarra eléctrica)
Selo Cifra Club: esta cifra foi revisada para atender aos critérios oficiais da nossa Equipe de Qualidade.
tono: Db
Introdução com um pouco de delay, drive (preferência a saturação do amp.):
e|----------------|-------------------------------------|
B|----------------|-------------------------------------|
G|--6--8--10--11--|--10--11--13--11--10--11--10---------|
D|--8--8---8---8--|---8---8---8---8---8---8---8---------|
A|----------------|-------------------------------------|
E|----------------|-------------------------------------|
 
e|--x-------------|--13--14--16--14------------------
B|--x-------------|-------------------------------------|
G|--x-------------|--10--11--14--11---------------------|
D|--x-------------|-------------------------------------|
A|----------------|-------------------------------------|
E|----------------|-------------------------------------|

... quando o cara começar a cantar, taca mais delay ou phaser, e capricha na base:
   (apenas deslize as notas...)
           (riff 01)
|------------------------------------------
|-9-\-----6-\-----4-\-----4----------/-4---|
|-8--\----5--\----3--\----4---------/--3---|
|-6---\---3---\---1---\---4--------/---1---|
|------------------------------------------|
|------------------------------------------|
breakin’  my back just to know your name,
                                                                 
Seventeen tracks and I've had it with this game…  
(… depois de “...with this game…”, toque essa passagem:)
e|--x-------------|--13--14--16--14------------------
B|--x-------------|-------------------------------------|
G|--x-------------|--10--11--14--11---------------------|
D|--x-------------|-------------------------------------|
A|----------------|-------------------------------------|
E|----------------|-------------------------------------|

|------------------------------------------
|-9-\-----6-\-----4-\-----4----------/-4---|
|-8--\----5--\----3--\----4---------/--3---|
|-6---\---3---\---1---\---4--------/---1---|
|------------------------------------------|
|------------------------------------------|
I'm breaking my back just to know your name

But heaven ain't close in a place like this

Anything goes but don't blink you might miss

Cause heaven ain't close in a place like this
                                                             
I said heaven ain't close in a place like this
(… depois de “...place like this…”, toque essa passagem:)
e|--x-------------|--13--14--16--14------------------
B|--x-------------|-------------------------------------|
G|--x-------------|--10--11--14--11---------------------|
D|--x-------------|-------------------------------------|
A|----------------|-------------------------------------|
E|----------------|-------------------------------------|

Bring it back down, bring it back down tonight… 
e|------------------------------|-----------------------|
B|--14------14--14----------14--|--14-14~~~-------------|
G|--11--13--13--11--13--13--13--|--13-13~~~-------------|
D|--11--11--11--11--11--11--11--|--11-11~~~-------------|
A|------------------------------|-----------------------|
E|------------------------------|-----------------------|

Never thought I'd let a rumour ruin my moonlight…
e|------------------------------|-----------------------|
B|--14------14--14----------14--|--14-14~~~-------------|
G|--11--13--13--11--13--13--13--|--13-13~~~-------------|
D|--11--11--11--11--11--11--11--|--11-11~~~-------------|
A|------------------------------|-----------------------|
E|------------------------------|-----------------------|


Refrão:
Com distorção do amp.:
  e|--1--2--4--1------------------------------------------|
 B|--2--2--4--1------------------------------------------|
 G|--3--3--5--2------------------------------------------|
 D|--3--4--6--3------------------------------------------|
 A|--1--4--6--3------------------------------------------|
 E|-----2--4--1------------------------------------------|
 (Bbm  F# G# F)
Well somebody told me, You had a boyfriend
Who looks like a girlfriend,That I had in February of last year
It's not confidential, I've got potential

Depois  do  refrão  tem  esta  passagenzinha: 
e|--x-------------|--13--14--16--14---------------------|
B|--x-------------|-------------------------------------|
G|--x-------------|--10--11--14--11---------------------|
D|--x-------------|-------------------------------------|
A|----------------|-------------------------------------|
E|----------------|-------------------------------------|

   (apenas deslize as notas...)           
|------------------------------------------
|-9-\-----6-\-----4-\-----4----------/-4---|
|-8--\----5--\----3--\----4---------/--3---|
|-6---\---3---\---1---\---4--------/---1---|
|------------------------------------------|
|------------------------------------------|
Ready? Let's roll onto something new, Taking its toll and I'm leaving without you

Cause heaven ain't close in a place like this, I said heaven ain't close in a place like this…

Bring it back down, bring it back down tonight… 
e|------------------------------|-----------------------|
B|--14------14--14----------14--|--14-14~~~-------------|
G|--11--13--13--11--13--13--13--|--13-13~~~-------------|
D|--11--11--11--11--11--11--11--|--11-11~~~-------------|
A|------------------------------|-----------------------|
E|------------------------------|-----------------------|

Never thought I'd let a rumour ruin my moonlight…
e|------------------------------|-----------------------|
B|--14------14--14----------14--|--14-14~~~-------------|
G|--11--13--13--11--13--13--13--|--13-13~~~-------------|
D|--11--11--11--11--11--11--11--|--11-11~~~-------------|
A|------------------------------|-----------------------|
E|------------------------------|-----------------------|
Refrão:
Com distorção do amp.:
  e|--1--2--4--1------------------------------------------|
 B|--2--2--4--1------------------------------------------|
 G|--3--3--5--2------------------------------------------|
 D|--3--4--6--3------------------------------------------|
 A|--1--4--6--3------------------------------------------|
 E|-----2--4--1------------------------------------------|
 (Bbm  F# G# F)
Well somebody told me, You had a boyfriend
Who looks like a girlfriend,That I had in February of last year
It's not confidential, I've got potential
A rushin', a rushin' around
 O break...
e -11-9--11-9--11-9----------11-9------------11-9--------|----------
B|------------------11-9-11--------11-9-11---------11-9--|--9/\/\---
G|-------------------------------------------------------|--8/\/\---
D|-------------------------------------------------------|----------repete um montão...
A|-------------------------------------------------------|----------
E|-------------------------------------------------------|----------
Pace yourself from me, I said maybe baby please

But I just don't know now, when all I wanna do is try…


= repete o refrão umas tres vezes, eu acho e depois acaba a musica.
                
 no ultimo tempo faça essas mudanças 
e|--1--2--4--1--|--1-----4--1--|--1-1------------|
B|--2--2--4--1--|--2--7--4--1--|--2-2------------|
G|--3--3--5--2--|--3--6--5--2--|--3-3------------|
D|--3--3--6--3--|--3--4--6--3--|--3-3------------|
A|--1--3--6--3--|--1--4--6--3--|--1-1------------|
E|----------2----4----1----|---------------4----1-----|--------------------------------|
Otros videos de esta canción
    44.631 exhibiciones
      • ½ Tono
      • A
      • Bb
      • B
      • C
      • Db
      • D
      • Eb
      • E
      • F
      • F#
      • G
      • Ab
    • Agregar a la lista

    Afinación de cifrado

    Afinador online

      Capítulos
      • Tocando a música
      • Dicas Iniciais / Equipamentos
      • Tocando a Introdução e Primeira Parte
      • Introdução - Parte 1 de 2
      • Introdução - Parte 2 de 2
      • Riff 1
      • Riff 2
      • Riff 3
      • Acordes do Refrão
      • Tocando o Primeiro Refrão
      • Ritmo do Refrão
      • Tocnando Segunda Parte - Ponte
      • Ponte - Parte 1 de 2
      • Ponte - Parte 2 de 2
      • Tocando o Terceiro Refrão
      • Riff Final
      • Encerramento
      • Ficha Técnica
      OK