Cifra Club

Somebody Told Me

The Killers

Tab de bajo: Versão 5
Selo Cifra Club: esta cifra foi revisada para atender aos critérios oficiais da nossa Equipe de Qualidade.
tono: Afinación:
I’m sure this is fully rite but if sum of it’s rong, tel me. I figured most of it out
cheked it of the video so it can’t be far wrong. The chorus is rong in most of the other
so… I tabed it rite! The bridge is a bit weird on my tab so e-mail me with the rite 
if you’ve got it. Or tell me mine’s rite! Also maybe play w/ a plec. Gives a gud sound
the CD.

Intro (hold)
  |----||---------|
  |----||---------|
  |----||---------|
  |-6~-||-6(x56)\-|

Verse 1
  |--------R-----------------------------------------------------------------------------------|
  |--------E-----------------------------------------------------------------------------------|
  |--------S-9(x8)11(x8)-------------------9(x8)11(x8)-----------------------------------------|
  |-6(x24)-T-------------6(x16)4/(6)6(x32)-------------6(x32)-2(x8)4(x8)6(x16)2(x16)4(x10)-9x9x|

Chorus:
  |--------------------------------------------||-------------------------------|
  |--------------------------------------------||-------------------------------|
  |------6-8\------8-6\------4-6\------6-4\----||------6-8\------8-6\------4-6\-|   x1
  |-5-66------1-22------3-44------1-22---------||-5-66------1-22------3-44------|

Verse 2
  |-----------------------------------------------------------|
  |-----------------------------------------------------------|
  |-------9(x8)11(x8)-----------------------------------------|
  |-6(x32)------------6(x32)-2(x8)4(x8)6(x16)2(x16)4(x10)-9x9x|

Chorus:
  |--------------------------------------------|
  |--------------------------------------------|
  |------6-8\------8-6\------4-6\------6-4\----|    x2
  |-5-66------1-22------3-44------1-22---------|

Bridge
  |-------------------------------------------67--67--76---------------|
  |-5~-7~-----------------------5(x8)-7(x8)-99--77--55--4(x8)7(x8)-----|
  |-------7~-----555--555-777777---------------------------------------|
  |----------7-0----55-------------------------------------------------|

Final Choruses							End
  |--------------------------------------------|        |------------|
  |--------------------------------------------|        |------------|
  |------6-8\-----8-6\-----4-6\------6-4\------|   x6        |-------|
  |-5-66------1-22-----3-44-----1-22-----------|        |-6-6--------|

Sound, James.
E-mail - *
Or msn me if u like…
Otros videos de esta canción
    623 exhibiciones

    Afinación de cifrado

    Afinador online

    OK