Cifra Club

Aprenda

Under The Gun

The Killers

Tablatura: Principal (guitarra)
tono: D
Main Riff played through the verse, let notes ring through

halo and wings..
e|-----10----10----10-9-10-----10----10----10-9-10--|
B|--------------------------------------------------|
G|--12----12----12----------11----11----11----------|
D|--------------------------------------------------|
A|--------------------------------------------------|
E|--------------------------------------------------|

angel for sure
e|-----10----10----10-9-10-----10----10----10-9-10--|
B|--------------------------------------------------|
G|--12----12----12----------11----11----11----------|
D|--------------------------------------------------|
A|--------------------------------------------------|
E|--------------------------------------------------|

it's too late..
e|-----10----10----10-9-10-----10----10----10-9-10--|
B|--------------------------------------------------|
G|--12----12----12----------11----11----11----------|
D|--------------------------------------------------|
A|--------------------------------------------------|
E|--------------------------------------------------|

angel's kiss was a joke..
e|-----10----10----10-9-10-----10----10----10-9-10--|
B|--------------------------------------------------|
G|--12----12----12----------11----11----11----------|
D|--------------------------------------------------|
A|--------------------------------------------------|
E|--------------------------------------------------|

sends and heaven takes..
e|-----------------------------------|
B|-----------------------------------|
G|--4-4-4-4-4-4-4-4-4-4-4-4-4-4-4-4--|
D|--4-4-4-4-4-4-4-4-4-4-4-4-4-4-4-4--|
A|--2-2-2-2-2-2-2-2-2-2-2-2-2-2-2-2--|
E|-----------------------------------|

cars in his brain..
e|-----------------------------------|
B|-----------------------------------|
G|--2-2-2-2-2-2-2-2-2-2-2-2-2-2-2-2--|
D|--2-2-2-2-2-2-2-2-2-2-2-2-2-2-2-2--|
A|--0-0-0-0-0-0-0-0-0-0-0-0-0-0-0-0--|
E|-----------------------------------|

tied up to a dream..
e|-----------------------------------|
B|-----------------------------------|
G|--4-4-4-4-4-4-4-4-4-4-4-4-4-4-4-4--|
D|--4-4-4-4-4-4-4-4-4-4-4-4-4-4-4-4--|
A|--2-2-2-2-2-2-2-2-2-2-2-2-2-2-2-2--|
E|-----------------------------------|

she can set him free..
e|-----------------------------------|
B|-----------------------------------|
G|--2-2-2-2-2-2-2-2-2-2-2-2-2-2-2-2--|
D|--2-2-2-2-2-2-2-2-2-2-2-2-2-2-2-2--|
A|--0-0-0-0-0-0-0-0-0-0-0-0-0-0-0-0--|
E|-----------------------------------|

Kill me now..
e|----------------------------------------------|
B|----------------------------------------------|
G|--7-7-7-7-7-7-7-7/--11-11-11-11-11-11-11-11/--|
D|--x-x-x-x-x-x-x-x/--x--x--x--x--x--x--x--x/---|
A|--5-5-5-5-5-5-5-5/--9--9--9--9--9--9--9--9/---|
E|----------------------------------------------|

e|------------------------------------------------------------------|
B|--15--15--15--15--15--15--15--15--15--15--15--15--15--15--15--15--|
G|--x---x---x---x---x---x---x---x---x---x---x---x---x---x---x---x---|
D|--12--12--12--12--12--12--12--12--12--12--12--12--12--12--12--12--|
A|------------------------------------------------------------------|
E|------------------------------------------------------------------|

e|----------------------------------------------|
B|----------------------------------------------|
G|--7-7-7-7-7-7-7-7/--11-11-11-11-11-11-11-11/--|
D|--x-x-x-x-x-x-x-x/--x--x--x--x--x--x--x--x/---|
A|--5-5-5-5-5-5-5-5/--9--9--9--9--9--9--9--9/---|
E|----------------------------------------------|

e|------------------------------------------------------------------|
B|--15--15--15--15--15--15--15--15--15--15--15--15--15--15--15--15--|
G|--x---x---x---x---x---x---x---x---x---x---x---x---x---x---x---x---|
D|--12--12--12--12--12--12--12--12--12--12--12--12--12--12--12--12--|
A|------------------------------------------------------------------|
E|------------------------------------------------------------------|

criminal mind...
e|-----10----10----10-9-10-----10----10----10-9-10--|
B|--------------------------------------------------|
G|--12----12----12----------11----11----11----------|
D|--------------------------------------------------|
A|--------------------------------------------------|
E|--------------------------------------------------|

life is under the gun..
e|-----10----10----10-9-10-----10----10----10-9-10--|
B|--------------------------------------------------|
G|--12----12----12----------11----11----11----------|
D|--------------------------------------------------|
A|--------------------------------------------------|
E|--------------------------------------------------|

he just wants to wake up..
e|-----10----10----10-9-10-----10----10----10-9-10--|
B|--------------------------------------------------|
G|--12----12----12----------11----11----11----------|
D|--------------------------------------------------|
A|--------------------------------------------------|
E|--------------------------------------------------|

she's an angel for sure..
e|-----10----10----10-9-10-----10----10----10-9-10--|
B|--------------------------------------------------|
G|--12----12----12----------11----11----11----------|
D|--------------------------------------------------|
A|--------------------------------------------------|
E|--------------------------------------------------|

sends and heaven takes..
e|-----------------------------------|
B|-----------------------------------|
G|--4-4-4-4-4-4-4-4-4-4-4-4-4-4-4-4--|
D|--4-4-4-4-4-4-4-4-4-4-4-4-4-4-4-4--|
A|--2-2-2-2-2-2-2-2-2-2-2-2-2-2-2-2--|
E|-----------------------------------|

cars in his brain..
e|-----------------------------------|
B|-----------------------------------|
G|--2-2-2-2-2-2-2-2-2-2-2-2-2-2-2-2--|
D|--2-2-2-2-2-2-2-2-2-2-2-2-2-2-2-2--|
A|--0-0-0-0-0-0-0-0-0-0-0-0-0-0-0-0--|
E|-----------------------------------|

tied up to a dream..
e|-----------------------------------|
B|-----------------------------------|
G|--4-4-4-4-4-4-4-4-4-4-4-4-4-4-4-4--|
D|--4-4-4-4-4-4-4-4-4-4-4-4-4-4-4-4--|
A|--2-2-2-2-2-2-2-2-2-2-2-2-2-2-2-2--|
E|-----------------------------------|

she can set him free..
e|-----------------------------------|
B|-----------------------------------|
G|--2-2-2-2-2-2-2-2-2-2-2-2-2-2-2-2--|
D|--2-2-2-2-2-2-2-2-2-2-2-2-2-2-2-2--|
A|--0-0-0-0-0-0-0-0-0-0-0-0-0-0-0-0--|
E|-----------------------------------|

Kill me now..
e|----------------------------------------------|
B|----------------------------------------------|
G|--7-7-7-7-7-7-7-7/--11-11-11-11-11-11-11-11/--|
D|--x-x-x-x-x-x-x-x/--x--x--x--x--x--x--x--x/---|
A|--5-5-5-5-5-5-5-5/--9--9--9--9--9--9--9--9/---|
E|----------------------------------------------|

e|------------------------------------------------------------------|
B|--15--15--15--15--15--15--15--15--15--15--15--15--15--15--15--15--|
G|--x---x---x---x---x---x---x---x---x---x---x---x---x---x---x---x---|
D|--12--12--12--12--12--12--12--12--12--12--12--12--12--12--12--12--|
A|------------------------------------------------------------------|
E|------------------------------------------------------------------|

e|----------------------------------------------|
B|----------------------------------------------|
G|--7-7-7-7-7-7-7-7/--11-11-11-11-11-11-11-11/--|
D|--x-x-x-x-x-x-x-x/--x--x--x--x--x--x--x--x/---|
A|--5-5-5-5-5-5-5-5/--9--9--9--9--9--9--9--9/---|
E|----------------------------------------------|

e|------------------------------------------------------------------|
B|--15--15--15--15--15--15--15--15--15--15--15--15--15--15--15--15--|
G|--x---x---x---x---x---x---x---x---x---x---x---x---x---x---x---x---|
D|--12--12--12--12--12--12--12--12--12--12--12--12--12--12--12--12--|
A|------------------------------------------------------------------|
E|------------------------------------------------------------------|

The single notes below are used with a harmonic effect

Stupid on the streets of London
e|---------------------------------|
B|---------------------------------|
G|--4-4-4-4-4-4-4------------------|
D|--4-4-4-4-4-4-4-/-9-9-9-9-9-9-9--|
A|--2-2-2-2-2-2-2------------------|
E|---------------------------------|

James Dean in the rain
e|---------------------------------|
B|---------------------------------|
G|--2-2-2-2-2-2-2------------------|
D|--2-2-2-2-2-2-2--7--9/-11--7-----|
A|--0-0-0-0-0-0-0------------------|
E|---------------------------------|

Without her
e|---------------------------------|
B|---------------------------------|
G|--4-4-4-4-4-4-4------------------|
D|--4-4-4-4-4-4-4-/-9-9-9-9-9-9-9--|
A|--2-2-2-2-2-2-2------------------|
E|---------------------------------|

It's not the same
e|---------------------------------|
B|---------------------------------|
G|--2-2-2-2-2-2-2------------------|
D|--2-2-2-2-2-2-2--7--9/-11--7-----|
A|--0-0-0-0-0-0-0------------------|
E|---------------------------------|

The same, the same
e|-----------------------------------|
B|-----------------------------------|
G|--4-4-4-4-4-4-4-4-4-4-4-4-4-4-4-4--|
D|--4-4-4-4-4-4-4-4-4-4-4-4-4-4-4-4--|
A|--2-2-2-2-2-2-2-2-2-2-2-2-2-2-2-2--|
E|-----------------------------------|

But it's alright
e|-----------------------------------|
B|-----------------------------------|
G|--2-2-2-2-2-2-2-2--2---------------|
D|--2-2-2-2-2-2-2-2--2---------------|
A|--0-0-0-0-0-0-0-0--0---------------|
E|-----------------------------------|

Because heaven sends..
e|-----------------------------------|
B|-----------------------------------|
G|--7-7-7-7-7-7-7-7-7-7-7-7-7-7-7-7--|
D|--7-7-7-7-7-7-7-7-7-7-7-7-7-7-7-7--|
A|--5-5-5-5-5-5-5-5-5-5-5-5-5-5-5-5--|
E|-----------------------------------|

cars in his brain..
e|-----------------------------------|
B|-----------------------------------|
G|--2-2-2-2-2-2-2-2-2-2-2-2-2-2-2-2--|
D|--2-2-2-2-2-2-2-2-2-2-2-2-2-2-2-2--|
A|--0-0-0-0-0-0-0-0-0-0-0-0-0-0-0-0--|
E|-----------------------------------|

tied up to a dream..
e|-----------------------------------|
B|-----------------------------------|
G|--4-4-4-4-4-4-4-4-4-4-4-4-4-4-4-4--|
D|--4-4-4-4-4-4-4-4-4-4-4-4-4-4-4-4--|
A|--2-2-2-2-2-2-2-2-2-2-2-2-2-2-2-2--|
E|-----------------------------------|

she can set him free..
e|-----------------------------------|
B|-----------------------------------|
G|--2-2-2-2-2-2-2-2--2---------------|
D|--2-2-2-2-2-2-2-2--2---------------|
A|--0-0-0-0-0-0-0-0--0---------------|
E|-----------------------------------|

and then he says to me..
e|-----------------------------------|
B|--15--15--15--15--15--15--15-------|
G|--x---x---x---x---x---x---x--------|
D|--12--12--12--12--12--12--12-------|
A|-----------------------------------|
E|-----------------------------------|

Kill me now..
e|----------------------------------------------|
B|----------------------------------------------|
G|--7-7-7-7-7-7-7-7/--11-11-11-11-11-11-11-11/--|
D|--x-x-x-x-x-x-x-x/--x--x--x--x--x--x--x--x/---|
A|--5-5-5-5-5-5-5-5/--9--9--9--9--9--9--9--9/---|
E|----------------------------------------------|

e|------------------------------------------------------------------|
B|--15--15--15--15--15--15--15--15--15--15--15--15--15--15--15--15--|
G|--x---x---x---x---x---x---x---x---x---x---x---x---x---x---x---x---|
D|--12--12--12--12--12--12--12--12--12--12--12--12--12--12--12--12--|
A|------------------------------------------------------------------|
E|------------------------------------------------------------------|

e|----------------------------------------------|
B|----------------------------------------------|
G|--7-7-7-7-7-7-7-7/--11-11-11-11-11-11-11-11/--|
D|--x-x-x-x-x-x-x-x/--x--x--x--x--x--x--x--x/---|
A|--5-5-5-5-5-5-5-5/--9--9--9--9--9--9--9--9/---|
E|----------------------------------------------|

e|------------------------------------------------------------------|
B|--15--15--15--15--15--15--15--15--15--15--15--15--15--15--15--15--|
G|--x---x---x---x---x---x---x---x---x---x---x---x---x---x---x---x---|
D|--12--12--12--12--12--12--12--12--12--12--12--12--12--12--12--12--|
A|------------------------------------------------------------------|
E|------------------------------------------------------------------|

Again and again..
e|-----------------------------------|
B|-----------------------------------|
G|--6-6-6-6-7--7--7------------------|
D|--x-x-x-x-x--x--x------------------|
A|--4-4-4-4-5--5--5------------------|
E|-----------------------------------|
Composição de Brandon Flowers
Colaboración y revision:
  • Élison Duarte
107 reproducciones
  • Simplificar cifra
    • ½ Tono
    • A
    • Bb
    • B
    • C
    • Db
    • D
    • Eb
    • E
    • F
    • F#
    • G
    • Ab
  • Adicionar à lista

    0 comentarios

    Ver todos os comentários

    ¿Conseguiste tocar?

    0 Tocaram 0 Ainda não

    Grave um vídeo tocando Under The Gun e nos envie!

    00:00 / 00:00
    outros vídeos desta música
    repetir qualidade Automático
    Outros vídeos desta música
    00:00 / 00:00
    Automático
    OK