Cifra Club

You Really Got Me

The Kinks

Cifrado: Principal (guitarra y guitarra eléctrica)
tono: F#
E||-----------------------|-----------------------|-----------------------|
B||-----------------------|-----------------------|-----------------------|
G||-----------------------|-----------------------|-----------------------|
D||--4--6--6--4--6--------|--4--6--6--4--6--------|--4--6--6--4--6--------|
A||--4--6--6--4--6--------|--4--6--6--4--6--------|--4--6--6--4--6--------|
E||--2--4--4--2--4--------|--2--4--4--2--4--------|--2--4--4--2--4--------|


                                                                        
-----------------------|-----------------------|-----------------------|
-----------------------|-----------------------|-----------------------|
-----------------------|-----------------------|-----------------------|
--4--6--6--4--6--------|--4--6--6--4--6--------|--4--6--6--4--6--------|
--4--6--6--4--6--------|--4--6--6--4--6--------|--4--6--6--4--6--------|
--2--4--4--2--4--------|--2--4--4--2--4--------|--2--4--4--2--4--------|


                                                                        
-----------------------|-----------------------|-----------------------|
-----------------------|-----------------------|-----------------------|
-----------------------|-----------------------|-----------------------|
--4--6--6--4--6--------|--4--6--6--4--6--------|--4--6--6--4--6--------|
--4--6--6--4--6--------|--4--6--6--4--6--------|--4--6--6--4--6--------|
--2--4--4--2--4--------|--2--4--4--2--4--------|--2--4--4--2--4--------|


                                                                        
-----------------------|-----------------------|-----------------------|
-----------------------|-----------------------|-----------------------|
-----------------------|-----------------------|-----------------------|
--4--6--6--4--6--------|--4--6--6--4--6--------|--4--6--6--4--6--------|
--4--6--6--4--6--------|--4--6--6--4--6--------|--4--6--6--4--6--------|
--2--4--4--2--4--------|--2--4--4--2--4--------|--2--4--4--2--4--------|


                                                                        
-----------------------|-----------------------|-----------------------|
-----------------------|-----------------------|-----------------------|
-----------------------|-----------------------|-----------------------|
--6--8--8--6--8--------|--6--8--8--6--8--------|--6--8--8--6--8--------|
--6--8--8--6--8--------|--6--8--8--6--8--------|--6--8--8--6--8--------|
--4--6--6--4--6--------|--4--6--6--4--6--------|--4--6--6--4--6--------|


                                                     
-----------------------|----------------------------|
-----------------------|----------------------------|
-----------------------|----------------------------|
--6--8--8--6--8--------|--11--13--13--11--13--------|
--6--8--8--6--8--------|--11--13--13--11--13--------|
--4--6--6--4--6--------|--9---11--11--9---11--------|


                                                          
----------------------------|----------------------------|
----------------------------|----------------------------|
----------------------------|----------------------------|
--11--13--13--11--13--------|--11--13--13--11--13--------|
--11--13--13--11--13--------|--11--13--13--11--13--------|
--9---11--11--9---11--------|--9---11--11--9---11--------|


                                                          
----------------------------|----------------------------|
----------------------------|----------------------------|
----------------------------|----------------------------|
--11--13--13--11--13--------|--11--13--13--11--13--------|
--11--13--13--11--13--------|--11--13--13--11--13--------|
--9---11--11--9---11--------|--9---11--11--9---11--------|


                                                                                
------------------------------|-------------------|----|-----------------------|
------------------------------|-------------------|----|-----------------------|
------------------------------|-------------------|----|-----------------------|
--11--13--13--11--13------11--|----9--------------|----|--4--6--6--4--6--------|
--11--13--13--11--13------11--|----9--------------|----|--4--6--6--4--6--------|
--9---11--11--9---11------9---|----7--------------|----|--2--4--4--2--4--------|


                                                                        
-----------------------|-----------------------|-----------------------|
-----------------------|-----------------------|-----------------------|
-----------------------|-----------------------|-----------------------|
--4--6--6--4--6--------|--4--6--6--4--6--------|--4--6--6--4--6--------|
--4--6--6--4--6--------|--4--6--6--4--6--------|--4--6--6--4--6--------|
--2--4--4--2--4--------|--2--4--4--2--4--------|--2--4--4--2--4--------|


                                                                        
-----------------------|-----------------------|-----------------------|
-----------------------|-----------------------|-----------------------|
-----------------------|-----------------------|-----------------------|
--4--6--6--4--6--------|--4--6--6--4--6--------|--4--6--6--4--6--------|
--4--6--6--4--6--------|--4--6--6--4--6--------|--4--6--6--4--6--------|
--2--4--4--2--4--------|--2--4--4--2--4--------|--2--4--4--2--4--------|


                                                                             
----------------------------|-----------------------|-----------------------|
----------------------------|-----------------------|-----------------------|
----------------------------|-----------------------|-----------------------|
--4--6--6--4--6-------------|--8--8--8--6--8--------|--6--8--8--6--8--------|
--4--6--6--4--6-------------|--8--8--8--6--8--------|--6--8--8--6--8--------|
--2--4--4--2--4--4-4-4-5--5-|--6--6--6--4--6--------|--4--6--6--4--6--------|


                                                                             
-----------------------|-----------------------|----------------------------|
-----------------------|-----------------------|----------------------------|
-----------------------|-----------------------|----------------------------|
--6--8--8--6--8--------|--6--8--8--6--8--------|--11--13--13--11--13--------|
--6--8--8--6--8--------|--6--8--8--6--8--------|--11--13--13--11--13--------|
--4--6--6--4--6--------|--4--6--6--4--6--------|--9---11--11--9---11--------|


                                                          
----------------------------|----------------------------|
----------------------------|----------------------------|
----------------------------|----------------------------|
--11--13--13--11--13--------|--11--13--13--11--13--------|
--11--13--13--11--13--------|--11--13--13--11--13--------|
--9---11--11--9---11--------|--9---11--11--9---11--------|


                                                          
----------------------------|----------------------------|
----------------------------|----------------------------|
----------------------------|----------------------------|
--11--13--13--11--13--------|--11--13--13--11--13--------|
--11--13--13--11--13--------|--11--13--13--11--13--------|
--9---11--11--9---11--------|--9---11--11--9---11--------|


                                                                        
------------------------------|-------------------|--------------------|
------------------------------|-------------------|--------------------|
------------------------------|-------------------|--------------6b-6b-|
--11--13--13--11--13------11--|----9--------------|--------------------|
--11--13--13--11--13------11--|----9--------------|--------------------|
--9---11--11--9---11------9---|----7--------------|--------------------|


                                                          
----------------------------|----------------------------|
----------------------------|----------------------------|
--6b-6b-8---------8----8----|--8----8----8-----6b-8------|
-----------9-6-6--9--6-9--6-|--9--6-9--6-9--6--------9-6-|
----------------------------|----------------------------|
----------------------------|----------------------------|


                                                        
----------------------------|--------------------------|
----------------------------|-----------9-------9------|
-----8----8----8--6b-8------|--------------6b----------|
--6--9--6-9--6-9--------9-6-|--6----9-6------------9-6-|
----------------------------|--------------------------|
----------------------------|--------------------------|


                                                        
----------------------------|--------------------------|
------------------7--7--7---|-----------9-------9------|
-----8----8----8--6b-6b-6---|--------------6b----------|
--6--9--6-9--6-9----------9-|--6----9-6------------9-6-|
----------------------------|--------------------------|
----------------------------|--------------------------|


                                                                             
---------------------------|------------------------|-----------------------|
------------------7--7--7--|--7--7--7---------------|-----------------------|
-----8----8----8--6b-6b-6b-|--6b-6b-4--6----6-------|-----------------------|
--6--9--6-9--6-9-----------|---------------------6--|--4--6--6--4--6--------|
---------------------------|------------------------|-----------------------|
---------------------------|------------------------|-----------------------|


                                                                        
-----------------------|-----------------------|-----------------------|
-----------------------|-----------------------|-----------------------|
-----------------------|-----------------------|-----------------------|
--4--6--6--4--6--------|--4--6--6--4--6--------|--4--6--6--4--6--------|
--4--6--6--4--6--------|--4--6--6--4--6--------|--4--6--6--4--6--------|
-----------------------|--2--4--4--2--4--------|--2--4--4--2--4--------|


                                                                        
-----------------------|-----------------------|-----------------------|
-----------------------|-----------------------|-----------------------|
-----------------------|-----------------------|-----------------------|
--4--6--6--4--6--------|--4--6--6--4--6--------|--4--6--6--4--6--------|
--4--6--6--4--6--------|--4--6--6--4--6--------|--4--6--6--4--6--------|
--2--4--4--2--4--------|--2--4--4--2--4--------|--2--4--4--2--4--------|


                                                                             
-----------------------|-----------------------|----------------------------|
-----------------------|-----------------------|----------------------------|
-----------------------|-----------------------|----------------------------|
--4--6--6--4--6--------|--4--6--6--4--6--------|--4--6--6--4--6-------------|
--4--6--6--4--6--------|--4--6--6--4--6--------|--4--6--6--4--6-------------|
--2--4--4--2--4--------|--2--4--4--2--4--------|--2--4--4--2--4--4-4-4-5--5-|


                                                                        
-----------------------|-----------------------|-----------------------|
-----------------------|-----------------------|-----------------------|
-----------------------|-----------------------|-----------------------|
--8--8--8--6--8--------|--6--8--8--6--8--------|--6--8--8--6--8--------|
--8--8--8--6--8--------|--6--8--8--6--8--------|--6--8--8--6--8--------|
--6--6--6--4--6--------|--4--6--6--4--6--------|--4--6--6--4--6--------|


                                                     
-----------------------|----------------------------|
-----------------------|----------------------------|
-----------------------|----------------------------|
--6--8--8--6--8--------|--11--13--13--11--13--------|
--6--8--8--6--8--------|--11--13--13--11--13--------|
--4--6--6--4--6--------|--9---11--11--9---11--------|


                                                          
----------------------------|----------------------------|
----------------------------|----------------------------|
----------------------------|----------------------------|
--11--13--13--11--13--------|--11--13--13--11--13--------|
--11--13--13--11--13--------|--11--13--13--11--13--------|
--9---11--11--9---11--------|--9---11--11--9---11--------|


                                                          
----------------------------|----------------------------|
----------------------------|----------------------------|
----------------------------|----------------------------|
--11--13--13--11--13--------|--11--13--13--11--13--------|
--11--13--13--11--13--------|--11--13--13--11--13--------|
--9---11--11--9---11--------|--9---11--11--9---11--------|


                                                                            
----------------------------|------------------------|--------------------||
----------------------------|------------------------|--------------------||
----------------------------|------------------------|--------------------||
--11--13--13--11--13--------|----13------13------13--|------13------------||
--11--13--13--11--13--------|----13------13------13--|------13------------||
--9---11--11--9---11--------|----11------11------11--|------11------------||
Composición de Ray Davies
4.394 vistas
    • ½ Tono
    • A
    • Bb
    • B
    • C
    • Db
    • D
    • Eb
    • E
    • F
    • F#
    • G
    • Ab
  • Agregar a la lista

    0 comentarios

    Ver todos los comentarios

    ¿Lograste tocar?

    11 Tocaron 4 Aún no

    ¡Graba un video tocando You Really Got Me y envíanoslo!

    00:00 / 00:00
    Otros videos de esta canción
    Repetir Calidad Automático
    Otros videos de esta canción
    00:00 / 00:00
    Automático
    OK