Cifra Club

Shine On

The Kooks

Tablatura: Principal
reproducciones 1.399
Tono: F# (con acordes en la forma de C) Capo en 6ª casa
(riff 1 - 2x)
E|------------------|
B|--11--12----------|
G|----------13------|
D|------------------|
A|------------------|
E|------------------|

(riff 2)
                C           Am      F    F/E   Dm      C         Am      F    F/E    Dm
E|--------------6-6-6-------6-6-6-6-7-7-7-7-7-7-7-7-7-7-6-6-------6-6-6-6-7-7-7-7-7-7-7-7-7-7-|
B|--------------7-7-7-------7-7-7-7-7-7-7-7-7-7-9-9-9-9-7-7-------7-7-7-7-7-7-7-7-7-7-9-9-9-9-|
G|--6s8-6---6---6-6-6-6-8-6-8-8-8-8-8-8-8-8-8-8-8-8-8-8-6-6-6-8-6-8-8-8-8-8-8-8-8-8-8-8-8-8-8-|
D|--------8---6-8-8-8-------8-8-8-8-9-9-9-9-9-9-6-6-6-6-8-8-------8-8-8-8-9-9-9-9-9-9-6-6-6-6-|
A|--------------9-9-9-------6-6-6-6-9-9-9-9-9-9---------9-9-------6-6-6-6-9-9-9-9-9-9---------|
E|----------------------------------7-7-7-6-6-6---------6-6---------------7-7-7-6-6-9---------|

C
Safety pins
Am
Holding up the things
     F    F/E      Dm
That make you      mine
C
About your hair
Am
You needn't care
F
You look beautiful
 F/E         Dm
All of the time

D        G            C
  Shine, shine, shine on
G
   Yes
D             G           C       G
   Won't you shine, shine on

C
Your magazines
Am
At people at the seams
F      F/E        Dm
But you still     read
C
I must admit
Am
I don't believe in it
F
But I see how
F/E            Dm
You get sucked in

D         G           C
  Shine, shine, shine on
G
   Yes
D               G          C
    Won't you shine, shine on
G           D
(Sha la la la)
           G           C
  Shine, shine, shine on
G
   Yes
D              G            Em
    Won't you shine, shine on
                       Bm
 Because your  not done
D             G
  Why do you bite the hand
        Bm
That feeds you

Why do you
D            G
 Why do you bite the hand
               Bm
That feeds, you     yeah

(solo)
                C           Am      F    F/E   Dm      C         Am      F    F/E    Dm
E|--------------6-6-6-------6-6-6-6-7-7-7-7-7-7-7-7-7-7-6-6-------6-6-6-6-7-7-7-7-7-7-7-7-7-7-|
B|--------------7-7-7-------7-7-7-7-7-7-7-7-7-7-9-9-9-9-7-7-------7-7-7-7-7-7-7-7-7-7-9-9-9-9-|
G|--6s8-6---6---6-6-6-6-8-6-8-8-8-8-8-8-8-8-8-8-8-8-8-8-6-6-6-8-6-8-8-8-8-8-8-8-8-8-8-8-8-8-8-|
D|--------8---6-8-8-8-------8-8-8-8-9-9-9-9-9-9-6-6-6-6-8-8-------8-8-8-8-9-9-9-9-9-9-6-6-6-6-|
A|--------------9-9-9-------6-6-6-6-9-9-9-9-9-9---------9-9-------6-6-6-6-9-9-9-9-9-9---------|
E|----------------------------------7-7-7-6-6-6---------6-6---------------7-7-7-6-6-9---------|

D          G          C
  Shine, shine, shine on
G
  Yes
D              G          C
   Won't you shine, shine on
G           D
(Sha la la la)
           G           C
  Shine, shine, shine on
G
  Yes
D              G          C
   Won't you shine, shine on

C
Safety pins
Am
Holding up the things
     F    F/E      Dm
That make you      mine
C
About your hair
Am
You needn't care
F
You look beautiful
 F/E         Dm
All of the time
Acordes para:
    Compositor: Luke PritchardColaboración y revision:
    • ANDRÉ REIS

    0 comentarios

      mostrar más comentarios

      ¿Conseguiste tocar?

      5tocaron0aún no

      ¡Graba un vídeo tocando Shine On y envianoslo!

      00:00 / 00:00
      outros vídeos desta música
      repetirqualidadeautomática
      Outro vídeos desta música
        00:00 / 00:00
        automática
        OK