Cifra Club

Its Been So Long

The Living Tombstone

Cifrado: Principal (guitarra y guitarra eléctrica)
tono: Bbm
[Intro] Bbm  F  Bbm  F  Bbm 
        F  Bbm  F  Bbm

E|--1-----1--------------------------------------------------------|
B|-----4------4--4----2--4----2--2----1--------1--2----4--1--------|
G|----------------------------------------3--------------------2--3|
D|-----------------------------------------------------------------|
A|--1------------1---------------1----------------1---------------1|
E|--------1--------------1----------------1---------------1--------|

[Primeira Parte]

Bbm                G#
I dunno what I was thinking,
Db               Gb
Leaving my child behind,
Bbm              G#              Db       F
Now I suffer the curse and now I am blind
Bbm                  G#
With all this anger, guilt and sadness,
Db               Gb
Coming to haunt me forever,
                     F                       Bbm
I can't wait for the cliff at the end of the river,
Bbm                  G#
Is this revenge I am seeking,
   Db                 Gb
Or seeking someone to avange me
      Bbm           G#              Db          F
Stuck in my own paradox I wanna set myself free
   Bbm         G#
Maybe I should chase and find
   Db                    Gb
before they'll try to stop it
   Gb            F                    Bbm
It won't be long before I'll become a puppet

[Refrão]

     Bbm     G#
It's been so long,
Db                        
Since I last have seen my son
             Gb
lost to this monster
       F               Bbm
to the man behind the slaughter
      Bbm         G#
Since you've been gone
          Db                  
I've been singing this stupid song
           Gb
So I could ponder
     F             Bbm
The sanity of your mother

[Solo]

E|-----------------------------------------------------------------|
B|--------6----------6---------------------7----------7------------|
G|-----6----------6---------------------5----------5----------5----|
D|--8----------8----------8--7--6----6----------6----------6-------|
A|-----------------------------------------------------------------|
E|-----------------------------------------------------------------|

E|--------4----------4----------------4------6------4--------------|
B|-----6----------6----------6-----4---------------------------6---|
G|--6----------6----------6-----5--------5------5-----------6------|
D|-------------------------------------------------------8---------|
A|-----------------------------------------------------------------|
E|-----------------------------------------------------------------|

E|------------------------------------------------------4----------|
B|--------6-----------------7----------7-------------6----------4--|
G|-----6-----------------5----------5----------5--6----------6-----|
D|--8----------8--7--6-----------6----------6----------------------|
A|-----------------------------------------------------------------|
E|-----------------------------------------------------------------|

E|--4-----------------4----------4---------------------------------|
B|----------6------4----------4-----6--4----------6----------6-----|
G|-------6-----5-----------5-------------------6----------6--------|
D|------------------------------------------8----------8-----------|
A|-----------------------------------------------------------------|
E|-----------------------------------------------------------------|

E|----------------------------------------------4----------4-------|
B|-------------------7----------7------------6----------6----------|
G|----------------5----------5---------5--6----------6----------6--|
D|--8--7--6----6----------6---------6------------------------------|
A|-----------------------------------------------------------------|
E|-----------------------------------------------------------------|

E|-----------4---8--9--8--6----------------------------------------|
B|--6-----4------------------9----------6--------6--------------7--|
G|-----5-----------------------------6--------6--------------5-----|
D|--------------------------------8--------8--------8--7--6--------|
A|-----------------------------------------------------------------|
E|-----------------------------------------------------------------|

E|-----------------------4--------4--------------------------------|
B|--------7-----------6--------6--------6--------------------------|
G|-----5--------5--6--------6--------6-----5-----------------------|
D|--6--------6--------------------------------3--------------------|
A|-----------------------------------------------------------------|
E|-----------------------------------------------------------------|

[Segunda Parte]

Bbm                   G#
I wish I lived in the present
         Db              Gb
With the gift of my past mistakes
        Bbm                 G#                Db      F
But the future keeps luring in like a pack of snakes
     Bbm          G#                Db
Your sweet little eyes, your little smile,
          Gb
is all I remember
      Gb          F               Bbm
Those fuzzy memories mess with my temper
Bbm              G#
Justification is killing me
    Db            Gb
But killing isn't justified
     Bbm            G#            Db   F
What happened to my son, I'm terrified
   Bbm           G#                   Db             Gb
It lingers in my mind and the thought keeps on getting bigger,
    Gb             F                 Bbm         
I'm sorry my sweet baby, I wish I've been there.

[Refrão]

     Bbm     G#
It's been so long,
Db                        
Since I last have seen my son
             Gb
lost to this monster
       F              Bbm
to the man behind the slaughter

      Bbm         G#
Since you've been gone
          Db                  
I've been singing this stupid song
           Gb
So I could ponder
     F             Bbm
The sanity of your mother

[Final] 

E|--------------------------------------------------9----------11--|
B|--------6--------6----------6--------9--------11---------10------|
G|-----6--------6----------6--------6-------11---------11----------|
D|--8--------8----------9--------9---------------------------------|
A|-----------------------------------------------------------------|
E|-----------------------------------------------------------------|

E|---------9-------------------------------------------------------|
B|------9---------------------6--------6--------6--------9------11-|
G|--10--------10--8--6-----6--------6--------6--------6-----11-----|
D|----------------------8--------8--------9--------9---------------|
A|-----------------------------------------------------------------|
E|-----------------------------------------------------------------|

E|--9----------11---------9----------------------------------------|
B|---------10----------9-------------------------------------------|
G|-----11----------10--------10--9--6--5--6------------------------|
D|-----------------------------------------------------------------|
A|-----------------------------------------------------------------|
E|-----------------------------------------------------------------|
00:00 / 00:00
Otros videos de esta canción
Repetir
Otros videos de esta canción
Compositor no encontrado.
Colaboración y revisión:
  • lixosaur
  • EliseuZin
  • Raphael Machado
1.940 vistas
    • ½ Tono
    • Am
    • Bbm
    • Bm
    • Cm
    • C#m
    • Dm
    • Ebm
    • Em
    • Fm
    • F#m
    • Gm
    • G#m
  • Agregar a la lista

    0 comentarios

    Ver todos los comentarios

    ¿Lograste tocar?

    5 Tocaron 4 Aún no

    ¡Graba un video tocando Its Been So Long y envíanoslo!

    00:00 / 00:00
    OK