Cifra Club

Supermodels Robots

The Network

Chords: Principal (acoustic and electric guitars)
tone: D
base:
e|--------------------------------
B|--------------------------------
G|----------------9-9-------------
D|-9-9-9-9--7-7---9-9-------------
A|-9-9-9-9--7-7---7-7-------------
E|-7-7-7-7--5-5-------------------


 Refrão:

e|---------------------------------
B|---------------------------------
G|---------------------------------
D|---------------------------------
A|---------------------------------
E|-2--0--2--0--2-------------------
00:00 / 00:00
Other videos of this song
Repeat
Other videos of this song
Composed by The Network
Collaboration and Review:
  • Rodolpho Fernando
30 views
    • ½ Tone
    • A
    • Bb
    • B
    • C
    • Db
    • D
    • Eb
    • E
    • F
    • F#
    • G
    • Ab
  • Add to list
    00:00 / 00:00
    OK