Cifra Club

Somewhere In America

The Outfield

Cifrado: Principal (guitarra y guitarra eléctrica)
Selo Cifra Club: esta cifra foi revisada para atender aos critérios oficiais da nossa Equipe de Qualidade.
tono: Em
[Intro]
E|-------1-0-----1-3-0---1-3-0-----|
B|-----3-----1---------1-------1---|
G|---2---------2-----------------2-| x4
D|-0-------------------------------|
A|---------------------------------|
E|---------------------------------|

E|-------1-0-----1-3-0---1-3-0-----|
B|-----3-----3---------1-------1---|
G|---3---------3-----------------2-| x2
D|---------------------------------|
A|-1-------------------------------|
E|---------------------------------|

[Verse]

E|------------------------|
B|------------------------|
G|-5-5-7-7--7--5-5-7-7--7-|
D|-5-5-7-7--7--5-5-7-7--7-|
A|-3-3-5-5--5--3-3-5-5--5-|
E|-3-3-5-5--5--3-3-5-5--5-|
Just play that game and throw the dice
        
E|------------------------1-1-0--1-1-0--1-1-1-0--1-1-0--1-1-0--1-1-1-0|
B|------------------------3-3-3--3-3-3--3-3-3-3--3-3-3--3-3-3--3-3-3-3|
G|-5-5-7-7--7--5--7-7--7--3-3-3--3-3-3--3-3-3-3--3-3-3--3-3-3--3-3-3-3|
D|-5-5-7-7--7--5--7-7--7--3-3-3--3-3-3--3-3-3-3--3-3-3--3-3-3--3-3-3-3|
A|-3-3-5-5--5--3--5-5--5----------------------------------------------|
E|-3-3-5-5--5--3--5-5--5----------------------------------------------|
You might not win but you can't lose tonight
          
E|------------------------|
B|------------------------|
G|-5-5-7-7--7--5-5-7-7--7-|
D|-5-5-7-7--7--5-5-7-7--7-|
A|-3-3-5-5--5--3-3-5-5--5-|
E|-3-3-5-5--5--3-3-5-5--5-|             
Just watch this fairy tale unfold

E|------------------------1-1-0--1-1-0--1-1-1-0--1-1-0--1-1-0--1-1-1-0|
B|------------------------3-3-3--3-3-3--3-3-3-3--3-3-3--3-3-3--3-3-3-3|
G|-5-5-7-7--7--5--7-7--7--3-3-3--3-3-3--3-3-3-3--3-3-3--3-3-3--3-3-3-3|
D|-5-5-7-7--7--5--7-7--7--3-3-3--3-3-3--3-3-3-3--3-3-3--3-3-3--3-3-3-3|
A|-3-3-5-5--5--3--5-5--5----------------------------------------------|
E|-3-3-5-5--5--3--5-5--5----------------------------------------------|
You won't believe all the things you've been told, young or old

[Chorus]

E|-------1-0-----1-3-0---1-3-0-----|
B|-----3-----1---------1-------1---|
G|---2---------2-----------------2-|
D|-0-------------------------------|
A|---------------------------------|
E|---------------------------------|
Somewhere in America

E|-------1-0-----1-3-0---1-3-0-----|
B|-----3-----1---------1-------1---|
G|---2---------2-----------------2-|
D|-0-------------------------------|
A|---------------------------------|
E|---------------------------------|        
Somewhere in America 

E|-------1-0-----1-3-0---1-3-0-----|
B|-----3-----3---------1-------1---|
G|---3---------3-----------------2-| x2
D|---------------------------------|
A|-1-------------------------------|
E|---------------------------------|
Tonight

[Verse]

E|------------------------|
B|------------------------|
G|-5-5-7-7--7--5-5-7-7--7-|
D|-5-5-7-7--7--5-5-7-7--7-|
A|-3-3-5-5--5--3-3-5-5--5-|
E|-3-3-5-5--5--3-3-5-5--5-|  
Another town another place
        
E|------------------------1-1-0--1-1-0--1-1-1-0--1-1-0--1-1-0--1-1-1-0|
B|------------------------3-3-3--3-3-3--3-3-3-3--3-3-3--3-3-3--3-3-3-3|
G|-5-5-7-7--7--5--7-7--7--3-3-3--3-3-3--3-3-3-3--3-3-3--3-3-3--3-3-3-3|
D|-5-5-7-7--7--5--7-7--7--3-3-3--3-3-3--3-3-3-3--3-3-3--3-3-3--3-3-3-3|
A|-3-3-5-5--5--3--5-5--5----------------------------------------------|
E|-3-3-5-5--5--3--5-5--5----------------------------------------------|
Another name but you don't know the face

E|------------------------|
B|------------------------|
G|-5-5-7-7--7--5-5-7-7--7-|
D|-5-5-7-7--7--5-5-7-7--7-|
A|-3-3-5-5--5--3-3-5-5--5-|
E|-3-3-5-5--5--3-3-5-5--5-|
A joker deals and makes the rules

E|------------------------1-1-0--1-1-0--1-1-1-0--1-1-0--1-1-0--1-1-1-0|
B|------------------------3-3-3--3-3-3--3-3-3-3--3-3-3--3-3-3--3-3-3-3|
G|-5-5-7-7--7--5--7-7--7--3-3-3--3-3-3--3-3-3-3--3-3-3--3-3-3--3-3-3-3|
D|-5-5-7-7--7--5--7-7--7--3-3-3--3-3-3--3-3-3-3--3-3-3--3-3-3--3-3-3-3|
A|-3-3-5-5--5--3--5-5--5----------------------------------------------|
E|-3-3-5-5--5--3--5-5--5----------------------------------------------|       
A game of chance a game that was made for fools, like me and you

[Chorus]

E|-------1-0-----1-3-0---1-3-0-----|
B|-----3-----1---------1-------1---|
G|---2---------2-----------------2-|
D|-0-------------------------------|
A|---------------------------------|
E|---------------------------------|
Somewhere in America

E|-------1-0-----1-3-0---1-3-0-----|
B|-----3-----1---------1-------1---|
G|---2---------2-----------------2-|
D|-0-------------------------------|
A|---------------------------------|
E|---------------------------------|        
Somewhere in America 

E|-------1-0-----1-3-0---1-3-0-----|
B|-----3-----3---------1-------1---|
G|---3---------3-----------------2-| x2
D|---------------------------------|
A|-1-------------------------------|
E|---------------------------------|
Tonight

[Solo]

E|--------------------------------------------------------------------------|
B|-------------------------------------------------------------8b8-6---6-8b-|
G|-------------------------------3---2-------------------------------7------|
D|-0-------0------0-------0--------------3------0---2---0-------------------|
A|-----3--------------3-----------------------------------------------------|
E|--------------------------------------------------------------------------|

E|----------------------------------------5--6---5--6------------5--6--8-5--6----------------|
B|-8b---6--8---------5--6--8-5--6-----6-8---------------8--6-6-8--------------8--8b8-6-------|
G|-----------7---5-7--------------7----------------------------------------------------7-5-7-|
D|-------------------------------------------------------------------------------------------|
A|-------------------------------------------------------------------------------------------|
E|-------------------------------------------------------------------------------------------|

[Verse]

E|------------------------|
B|------------------------|
G|-5-5-7-7--7--5-5-7-7--7-|
D|-5-5-7-7--7--5-5-7-7--7-|
A|-3-3-5-5--5--3-3-5-5--5-|
E|-3-3-5-5--5--3-3-5-5--5-|         
Don't wave a flag unless it's white

E|------------------------1-1-0--1-1-0--1-1-1-0--1-1-0--1-1-0--1-1-1-0|
B|------------------------3-3-3--3-3-3--3-3-3-3--3-3-3--3-3-3--3-3-3-3|
G|-5-5-7-7--7--5--7-7--7--3-3-3--3-3-3--3-3-3-3--3-3-3--3-3-3--3-3-3-3|
D|-5-5-7-7--7--5--7-7--7--3-3-3--3-3-3--3-3-3-3--3-3-3--3-3-3--3-3-3-3|
A|-3-3-5-5--5--3--5-5--5----------------------------------------------|
E|-3-3-5-5--5--3--5-5--5----------------------------------------------|      
Don't make a noise unless you're prepared to fight, wrong or right

E|-------1-0-----1-3-0---1-3-0-----|
B|-----3-----1---------1-------1---|
G|---2---------2-----------------2-|
D|-0-------------------------------|
A|---------------------------------|
E|---------------------------------|
Somewhere in America

E|-------1-0-----1-3-0---1-3-0-----|
B|-----3-----1---------1-------1---|
G|---2---------2-----------------2-|
D|-0-------------------------------|
A|---------------------------------|
E|---------------------------------|        
Somewhere in America 

E|-------1-0-----1-3-0---1-3-0-----|
B|-----3-----3---------1-------1---|
G|---3---------3-----------------2-| x2
D|---------------------------------|
A|-1-------------------------------|
E|---------------------------------|
Tonight

[Outro]

e|-15-15-15-15-13-13-13-13-12-12-12-12-13-13-13-13-|
B|-15-15-15-15-15-15-15-15-15-15-15-15-15-15-15-15-|
G|-14-14-14-14-14-14-14-14-14-14-14-14-14-14-14-14-|
D|-------------------------------------------------| x8
A|-------------------------------------------------|
E|-------------------------------------------------|
Otros videos de esta canción
    32 exhibiciones
      • ½ Tono
      • Am
      • Bbm
      • Bm
      • Cm
      • C#m
      • Dm
      • Ebm
      • Em
      • Fm
      • F#m
      • Gm
      • G#m
    • Agregar a la lista

    Afinación de cifrado

    Afinador online

      OK