Cifra Club

Bring On The Night

The Police

Tablatura: Principal (guitarra)
Tom: D
E |----------0-------0-----------0-----0----------0------0---------------|
B |-------10------10------10---8-----8-----8----7-----7------7-----------|
G |----------------------------------------------------------------------|
D |----10------10------10----9-----9-----9----7-----7------7-------------|
A |----------------------------------------------------------------------|
E |----------------------------------------------------------------------|

E |---------0-------0------------0-----0-----------0-------0-------0-----|
B |------10------10------10----5-----5-----5----12------12------12-------|
G |----------------------------------------------------------------------|
D |---10------10------10-----5-----5-----5---12------12------12----------|
A |----------------------------------------------------------------------|
E |----------------------------------------------------------------------|

E |---------0-------0-----------0-----0----------------------------------|
B |------10------10------10---8-----8-----8------------------------------|
G |----------------------------------------------------------------------|
D |---10------10------10-----9----9-----9--------------------------------|
A |----------------------------------------------------------------------|
E |----------------------------------------------------------------------|

(refrão)

E |-----7---7---7---7-------9---9---9---9---------12--12--12--12---------|
B |-----8---8---8---8-------10--10--10--10--------13--13--13--13---------|
G |-----7---7---7---7-------9---9---9---9---------12--12--12--12---------|
D |----------------------------------------------------------------------|
A |----------------------------------------------------------------------|
E |----------------------------------------------------------------------|
           Bring on the night                         I couldn't stand
E |-------7---7-----9---9----------------|
B |-------8---8-----10--10---------------|
G |-------7---7-----9---9----------------|
D |--------------------------------------|
A |--------------------------------------|
E |--------------------------------------|
 another hour of daylight
reproducciones 1.347
Acordes para:
    Composição: Sting

    0 comentarios

    mostrar más comentarios

    ¿Conseguiste tocar?

    1 tocaron 0 aún no

    ¡Graba un vídeo tocando Bring On The Night y envianoslo!

    00:00 / 00:00
    outros vídeos desta música
    repetir qualidade Automático
    Outros vídeos desta música
    00:00 / 00:00
    Automático
    OK