Cifra Club

I Burn For You

The Police

Tablatura: Principal (guitarra)
Tom: D
E |---------------------------------------------------------------------------------|
B |---10----12-----10------12-------------------------------------------------------|
G |----7-----9------7-------9-------------------------------------------------------|
D |----7-----9------7-------9-------------------------------------------------------|
A |---------------------------------------------------------------------------------|
E |---------------------------------------------------------------------------------|

E |---------------------------------------------------------------------------|
B |---------------------------------------------------------------------------|
G |---6--8--6--8--------------------------------------------------------------|
D |---6--8--6--8--------------------------------------------------------------|
A |---4--6--4--6--------------------------------------------------------------|
E |---------------------------------------------------------------------------|

E |---6--8---8---6---------------------------------------------------------------|
B |---6--8---9---6---------------------------------------------------------------|
G |---6--8---10--8---------------------------------------------------------------|
D |---8--10--10--8---------------------------------------------------------------|
A |---8--10--8---6---------------------------------------------------------------|
E |---6--8-------6---------------------------------------------------------------|

E |--------------------------------------------------------------------------------|
B |--------------------------------------------------------------------------------|
G |----7-7-7-7---5-----5-----------------------------------------------------------|
D |------------7---7-5---7---------------------------------------------------------|
A |--------------------------------------------------------------------------------|
E |--------------------------------------------------------------------------------|

E |----------------------------------------------------------------------------------|
B |----------------------------------------------------------------------------------|
G |-----7-7-7-7---5------------------------------------------------------------------|
D |-------------7---7-5-5-5-3--------------------------------------------------------|
A |---------------------------7-5----------------------------------------------------|
E |----------------------------------------------------------------------------------|
reproducciones 70
Acordes para:

    0 comentarios

    mostrar más comentarios

    ¿Conseguiste tocar?

    0 tocaron 0 aún no

    ¡Graba un vídeo tocando I Burn For You y envianoslo!

    00:00 / 00:00
    outros vídeos desta música
    repetir qualidade Automático
    Outros vídeos desta música
    00:00 / 00:00
    Automático
    OK