Cifra Club

Message In a Bottle

The Police

Cifrado: Principal (guitarra y guitarra eléctrica)
tono: C#m (con acordes en la forma de Bm) Capotraste en 2ª casa
[Intro] B9  G9  A9  E9
        B9  G9  A9  E9

[Tab - Dedilhado]

      B9       G9       A9        E9
E|------------------------------------------|
B|-------2-----------------0----------------|
G|----------------2-------------------------|
D|----4--------0--------2------------4/5----|
A|-2-----------------0------------2---------|
E|----------3------------------0------------|

[Primeira Parte]

B9  G9         A9   E9
       Just a castaway
      B9      G9      A9  E9
On an island lost at sea, oh
B9  G9       A9     E9
    Another lonely day
      B9     G9       A9  E9
With no one here but me,  oh
B9  G9       A9    E9
       More loneliness
     B9   G9        A9  E9
Than any man could bear
B9  G9     A9   E9
   Rescue me before
   B9     G9    A9   E9
I fall into despair, oh

[Segunda Parte]

G5              C   D
   I'll send an S.O.S to the world
G5              C   D
   I'll send an S.O.S to the world
Em              C
   I hope that someone gets my
Em              C
   I hope that someone gets my
Em              C
   I hope that someone gets my

[Refrão]

[Tab - Dedilhado]

      Bm7         G        D/F#
E|------------------------------------------|
B|-3-----------3--------3-------------------|
G|-2-----------0--------2-------------------|
D|-0-----------0--------0-------------------|
A|-2--2-2-x-2---------------0---------------|
E|-------------3--3-3---2-------------------|

      Bm7         G        D/F#  Em9
E|----------------------------0-------------|
B|-3-----------3--------3-----0-------------|
G|-2-----------0--------2-----0-------------|
D|-0-----------0--------0-----4-------------|
A|-2--2-2-x-2-----------------2-------------|
E|-------------3--3-3---2-----0-------------|

      Bm7         G        D/F#  Em9
E|----------------------------0--0----------|
B|-3-----------3--------3-----0--0----------|
G|-2-----------0--------2-----0--0----------|
D|-0-----------0--------0-----4--4----------|
A|-2--2-2-x-2-----------------2--2----------|
E|-------------3--3-3---2-----0--0----------|

 Bm7          G   D/F#  Bm7  G  D/F#
Message in a bottle
 Bm7          G   D/F#  Bm7  G  D/F#
Message in a bottle
 Bm7          G   D/F#  Bm7  G  D/F#
Message in a bottle
 Bm7          G   D/F#  Em9
Message in a bottle

[Primeira Parte]

B9  G9    A9       E9
       A year has passed since
    B9      G9  A9  E9
I wrote my note
B9     G9              A9
   But I should have known this
 E9              B9  G9  A9  E9
Right from the start
B9  G9    A9       E9
    Only hope can keep me
   B9  G9  A9  E9
Toge_ther
B9  G9       A9        E9
   Love can mend your life
     B9        G9        A9   E9
But love can break your heart

[Segunda Parte]

G5              C   D
   I'll send an S.O.S to the world
G5              C   D
   I'll send an S.O.S to the world
Em              C
   I hope that someone gets my
Em              C
   I hope that someone gets my
Em              C
   I hope that someone gets my

[Refrão]

[Tab - Dedilhado]

      Bm7         G        D/F#
E|------------------------------------------|
B|-3-----------3--------3-------------------|
G|-2-----------0--------2-------------------|
D|-0-----------0--------0-------------------|
A|-2--2-2-x-2---------------0---------------|
E|-------------3--3-3---2-------------------|

      Bm7         G        D/F#  Em9
E|----------------------------0-------------|
B|-3-----------3--------3-----0-------------|
G|-2-----------0--------2-----0-------------|
D|-0-----------0--------0-----4-------------|
A|-2--2-2-x-2-----------------2-------------|
E|-------------3--3-3---2-----0-------------|

      Bm7         G        D/F#  Em9
E|----------------------------0--0----------|
B|-3-----------3--------3-----0--0----------|
G|-2-----------0--------2-----0--0----------|
D|-0-----------0--------0-----4--4----------|
A|-2--2-2-x-2-----------------2--2----------|
E|-------------3--3-3---2-----0--0----------|

 Bm7          G   D/F#  Bm7  G  D/F#
Message in a bottle
 Bm7          G   D/F#  Em9
Message in a bottle

[Primeira Parte]

B9  G9              A9  E9
   Walked out this mor_ning
   B9       G9          A9  E9
I don't believe what I saw
B9    G9      A9      E9
   A hundred billion bottles
 B9       G9       A9  E9
Washed up on the shore
B9  G9             A9     E9
   Seems I'm not alone at
        B9  G9  A9  E9
Being alone
   B9      G9      B9   E9
A hundred billion castaways
  B9     G9    A9  E9
Looking for a home

[Segunda Parte]

G5              C   D
   I'll send an S.O.S to the world
G5              C   D
   I'll send an S.O.S to the world
Em              C
   I hope that someone gets my
Em              C
   I hope that someone gets my
Em              C
   I hope that someone gets my

[Refrão]

[Tab - Dedilhado]

      Bm7         G        D/F#
E|------------------------------------------|
B|-3-----------3--------3-------------------|
G|-2-----------0--------2-------------------|
D|-0-----------0--------0-------------------|
A|-2--2-2-x-2---------------0---------------|
E|-------------3--3-3---2-------------------|

      Bm7         G        D/F#  Em9
E|----------------------------0-------------|
B|-3-----------3--------3-----0-------------|
G|-2-----------0--------2-----0-------------|
D|-0-----------0--------0-----4-------------|
A|-2--2-2-x-2-----------------2-------------|
E|-------------3--3-3---2-----0-------------|

      Bm7         G        D/F#  Em9
E|----------------------------0--0----------|
B|-3-----------3--------3-----0--0----------|
G|-2-----------0--------2-----0--0----------|
D|-0-----------0--------0-----4--4----------|
A|-2--2-2-x-2-----------------2--2----------|
E|-------------3--3-3---2-----0--0----------|

 Bm7          G   D/F#  Bm7  G  D/F#
Message in a bottle
 Bm7          G   D/F#  Bm7  G  D/F#
Message in a bottle
 Bm7          G   D/F#  Bm7  G  D/F#
Message in a bottle
 Bm7          G   D/F#  Em9
Message in a bottle

( B9  G9  A9  E9 )
( B9  G9  A9  E9 )

[Final]

 B9         G9    A9  E9
Sending out    an S.O.S
 B9         G9    A9  E9
Sending out    an S.O.S
 B9         G9    A9  E9
Sending out    an S.O.S
 B9         G9    A9  E9
Sending out    an S.O.S
 B9         G9    A9  E9
Sending out    an S.O.S
 B9         G9    A9  E9  B9
Sending out    an S.O.S
00:00 / 00:00
Otros videos de esta canción
Repetir
Otros videos de esta canción
Composición de Sting
38.734 exhibiciones
  • Simplificar cifrado
    • ½ Tono
    • Am
    • Bbm
    • Bm
    • Cm
    • C#m
    • Dm
    • Ebm
    • Em
    • Fm
    • F#m
    • Gm
    • G#m
  • Agregar a la lista
    00:00 / 00:00
    Capítulos
    • Tocando a música
    • Dicas iniciais / Equipamentos
    • Acordes da Introdução e Primeira Parte
    • Tocando Introdução e Primeira Parte
    • Ensinando Introdução e Primeira Parte
    • Acordes Refrão e Segunda Parte
    • Tocando Refrão e Segunda Parte
    • Ensinando Segunda Parte
    • Ensinando Refrão
    • Dicas Finais
    • Tocando trecho final
    • Encerramento
    • Ficha técnica
    OK