Cifra Club

Next To You

The Police

Tablatura: Principal (guitarra)
Tom: D
E |-----------------||----------------|----------------|
B |-----------------||----------------|-------3-3------|
G |--------0-2------||----------------|-------2-2-2-2--|
D |--------0-0-2-2--||----------------|-------0-0-2-2-2|
A |---9/2------0-0-2||-2--------------|-----------0-0-2|
E |----------------0||-0-0-0-0-0-0-0-0|-0-0-0---------0|

E |-----------------|
B |-----------------|
G |------------6----|
D |-2----------6----|
A |-2----------4----|
E |-0---------------|

(ponte)

E |---------------------------------------------------------------|
B |---------------------------------------------------------------|
G |----7--7--------7--7--7-7/9-------------9-9------9----------6--|
D |----7--7--------7--7--7-5/9---9---------9-9-9----9----9--9--6--|
A |----5--5--------5--5--5-5/7---7---------7-7-7----7----7--7--4--|
E |---------------------------------0----------0----0-------------|

E |-------------------------|
B |------------3--3---------|
G |------------2--2--2--2---|      (refrão)
D |------------0--0--2--2--2|
A |---7--7-----------0--0--2|
E |------------------------0|

E |---------------------------------------------|
B |---------------------------------------------|
G |---------------------------------------------|
D |--------5------3---2------------7-------5--4-|
A |---------------------------------------------|
E |--3--3------3-------------5--5-------5-------|
reproducciones 245
Acordes para:
    Composição: Sting

    0 comentarios

    mostrar más comentarios

    ¿Conseguiste tocar?

    0 tocaron 0 aún no

    ¡Graba un vídeo tocando Next To You y envianoslo!

    00:00 / 00:00
    outros vídeos desta música
    repetir qualidade Automático
    Outros vídeos desta música
    00:00 / 00:00
    Automático
    OK