Cifra Club

Space Invader

The Pretenders

Cifrado: Principal (guitarra y guitarra eléctrica)
Selo Cifra Club: esta cifra foi revisada para atender aos critérios oficiais da nossa Equipe de Qualidade.
tono: E
(bass and drums only for 4 bars)
E|------------------|------------------|------------------|------------------|
B|------------------|------------------|------------------|------------------|
G|------------------|------------------|------------------|------------------|
D|------------------|------------------|------------------|------------------|
A|------------------|------------------|------------------|------------------|
E|------------------|------------------|------------------|------------------|

E|-2-2--2--2--|
B|-3-2--3--3--|
G|-2-2--2--2--|
D|-4-2--4--4--|
A|-2-2--2--2--|
E|------------| 16x

E|----------|
B|-9-7-7----|
G|-9-7-9br--|
D|-7-7-9br--|
A|----------|
E|----------| 8x

E|-0------------4---|-0--0---------------|------------------|------------------|
B|-0------------5---|-0--0---------------|------------------|-9-9-9-9-9-9------|
G|-1------------4---|-1--1---------------|------------------|-9-9-9-9-9-9------|
D|-2------------0---|-2--2---------------|------------------|-9-9-9-9-9-9------|
A|-2----------------|-2------------------|------------------|-7-7-7-7-7-7------|
E|-0----------------|-0------------------|------------------|------------------|

E|-5-5-5-5------5--|
B|-5-5-5-5------5--|
G|-6-6-6-6------6--|
D|-7-7-7-7------7--|
A|-7-7-7-7------7--|
E|-5-5-5-5------5--|

E|-5--------5-5-5--|
B|-5--------5-5-5--|
G|-6--------6-6-6--|
D|-7--------7-7-7--|
A|-7--------7-7-7--|
E|-5--------5-5-5--|

E|-5-5-5-5-5-5-5-5--|
B|-5-5-5-5-5-5-5-5--|
G|-6-6-6-6-6-6-6-6--|
D|-7-7-7-7-7-7-7-7--|
A|-7-7-7-7-7-7-7-7--|
E|-5-5-5-5-5-5-5-5--|

E|-0-----0----------------------|
B|-0-----0----------------------|
G|-1-----1----------------------|
D|-2-----2----------------------|
A|-2----------------------------|
E|-0----------------------------|

E|-0-----0----------------------|
B|-0-----0----------------------|
G|-1-----1----------------------|
D|-2-----2----------------------|
A|-2----------------------------|
E|-0----------------------------|

E|-10-10-10-10-10-10-10-10---10-10-10-10-10-10-10-10--|
B|-10-10-10-10-10-10-10-10---10-10-10-10-10-10-10-10--|
G|-11-11-11-11-11-11-11-11---11-11-11-11-11-11-11-11--|
D|-12-12-12-12-12-12-12-12---12-12-12-12-12-12-12-12--|
A|-12-12-12-12-12-12-12-12---12-12-12-12-12-12-12-12--|
E|-10-10-10-10-10-10-10-10---10-10-10-10-10-10-10-10--|

E|-12-12-12-12-12-12-12-12---12-12-12-12-12-12-12-12--|
B|-12-12-12-12-12-12-12-12---12-12-12-12-12-12-12-12--|
G|-13-13-13-13-13-13-13-13---13-13-13-13-13-13-13-13--|
D|-14-14-14-14-14-14-14-14---14-14-14-14-14-14-14-14--|
A|-14-14-14-14-14-14-14-14---14-14-14-14-14-14-14-14--|
E|-12-12-12-12-12-12-12-12---12-12-12-12-12-12-12-12--|

E|-3-3-3------3-3-3-3-3-3-3-3-3-3--3----3-3-3-3-3--|
B|-3-3-3------3-3-3-3-3-3-3-3-3-3--3----3-3-3-3-3--|
G|-4-4-4------4-4-4-4-4-4-4-4-4-4--4----4-4-4-4-4--|
D|-5-5-5------5-5-5-5-5-5-5-5-5-5--5----5-5-5-5-5--|
A|-5-5-5------5-5-5-5-5-5-5-5-5-5--5----5-5-5-5-5--|
E|-3-3-3------3-3-3-3-3-3-3-3-3-3--3----3-3-3-3-3--|

E|-5-5-5------5-5-5-5-5-5-5-5-5-5--5----5-5-5-5-5--|
B|-5-5-5------5-5-5-5-5-5-5-5-5-5--5----5-5-5-5-5--|
G|-6-6-6------6-6-6-6-6-6-6-6-6-6--6----6-6-6-6-6--|
D|-7-7-7------7-7-7-7-7-7-7-7-7-7--7----7-7-7-7-7--|
A|-7-7-7------7-7-7-7-7-7-7-7-7-7--7----7-7-7-7-7--|
E|-5-5-5------5-5-5-5-5-5-5-5-5-5--5----5-5-5-5-5--|

E|-7-7-7------7-7-7-7-7-7-7-7-7-7--7----7-7-7-7-7--|
B|-7-7-7------7-7-7-7-7-7-7-7-7-7--7----7-7-7-7-7--|
G|-8-8-8------8-8-8-8-8-8-8-8-8-8--8----8-8-8-8-8--|
D|-9-9-9------9-9-9-9-9-9-9-9-9-9--9----9-9-9-9-9--|
A|-9-9-9------9-9-9-9-9-9-9-9-9-9--9----9-9-9-9-9--|
E|-7-7-7------7-7-7-7-7-7-7-7-7-7--7----7-7-7-7-7--|

E|-0-----0----------------------|
B|-0-----0----------------------|
G|-1-----1----------------------|
D|-2-----2----------------------|
A|-2----------------------------|
E|-0----------------------------|

E|-0-----0----------------------|
B|-0-----0----------------------|
G|-1-----1----------------------|
D|-2-----2----------------------|
A|-2----------------------------|
E|-0----------------------------|

E|-0-----0----------------------|
B|-0-----0----------------------|
G|-1-----1----------------------|
D|-2-----2----------------------|
A|-2----------------------------|
E|-0----------------------------|

E|-10-10-10-10-10-10-10-10---10-10-10-10-10-10-10-10--|
B|-10-10-10-10-10-10-10-10---10-10-10-10-10-10-10-10--|
G|-11-11-11-11-11-11-11-11---11-11-11-11-11-11-11-11--|
D|-12-12-12-12-12-12-12-12---12-12-12-12-12-12-12-12--|
A|-12-12-12-12-12-12-12-12---12-12-12-12-12-12-12-12--|
E|-10-10-10-10-10-10-10-10---10-10-10-10-10-10-10-10--|


[Outro]

E|-2-2--2--2--|
B|-3-2--3--3--|
G|-2-2--2--2--|
D|-4-2--4--4--|
A|-2-2--2--2--|
Eb|------------| 12x to fade out ...
00:00 / 00:00
Otros videos de esta canción
Repetir
Otros videos de esta canción
9 exhibiciones
    • ½ Tono
    • A
    • Bb
    • B
    • C
    • Db
    • D
    • Eb
    • E
    • F
    • F#
    • G
    • Ab
  • Agregar a la lista

Afinación de cifrado

Afinador online

    00:00 / 00:00
    OK