Cifra Club

Red Paint

The Promise Ring

Cifrado: Principal (guitarra y guitarra eléctrica)
Selo Cifra Club: esta cifra foi revisada para atender aos critérios oficiais da nossa Equipe de Qualidade.
tono: C
                Guitar 2 plays this F when gt 1 plays 1st fret F
E|---------------|----------------------------------------------------------|
B|---------------|----------------------------------------------------------|
G|--5------------|--9-------------------------------------------------------|
D|--5---7---3--5-|--10------------------------------------------------------|
A|--3---7---3--5-|--8-------------------------------------------------------|
E|------5---1--3-|----------------------------------------------------------|

      C                           Am
I was sad enough last saturday, I woke you to talk
                         F

but I didnt have much to say

    C                      Am             F
You came to two the cherry cokes, came to coke. (x2)

C              Am                     F
In the morning when the wind is still warm

                     G
and the rivers still following


Chorus Chords
E|-----------=-----------------------------------------------------------|
B|--0--0--0--0--0--------------------------------------------------------|
G|--0--0--0--0--0--------------------------------------------------------|
D|--x--x--x--5--5--------------------------------------------------------|
A|--3--5--3--2--3--------------------------------------------------------|
E|--1--3--5--------------------------------------------------------------|

              F G A C/B
still following

C                                   F G A C/B
The Astor hotel is black in the window

C                               F G A C/B  C
black in the hall since we left separately.


Bridge Chords (2nd chord???. There's a B in there somewhere :) )

E|----------------------------------------------------------------------|
B|----------------------------------------------------------------------|
G|--12--16--9-----------------------------------------------------------|
D|----------10----------------------------------------------------------|
A|--10--14--8-----------------------------------------------------------|
E|----------------------------------------------------------------------|

little lead before last chorus with yelling and screaming and so forth

E|----------------------------------------------------------------------|
B|----------------------------------------------------------------------|
G|------/10-9-----/10-9-------------------------------------------------|
D|-------------8--------8-----------------------------------------------|
A|----------------------------------------------------------------------|
E|----------------------------------------------------------------------|

Lead at end

E|----------------------------------------------------------------------|
B|--10---5---12--8--12-13p12-13p12-13p12--12-12-12-13-------------------|
G|----------------------------------------------------------------------|
D|----------------------------------------------------------------------|
A|----------------------------------------------------------------------|
E|----------------------------------------------------------------------|
Otros videos de esta canción
    4 exhibiciones
      • ½ Tono
      • A
      • Bb
      • B
      • C
      • Db
      • D
      • Eb
      • E
      • F
      • F#
      • G
      • Ab
    • Agregar a la lista

    Afinação da cifra

    Afinador online

      Ops (: Contenido disponible solo en portugués.
      OK