Cifra Club

Local Boy

The Rifles

Cifrado: Principal (guitarra y guitarra eléctrica)
tono: A
I saw them play this song live in pompey and it was amazing.


                           Intro

                          Played Twice
e|-----99999-10-9-7-9--------------------------|
B|----------------------77777-/-10-10-/-12-12--|
G|---------------------------------------------|
D|---------------------------------------------|
A|---------------------------------------------|
E|---------------------------------------------|

                             Bridge

e|------99999999---55555555---999999---1212121212---1010101010--|
B|--------------------------------------------------------------|
G|--------------------------------------------------------------|
D|--------------------------------------------------------------|
A|--------------------------------------------------------------|
E|--------------------------------------------------------------|


                           Verse
                          Played four Times
e|---------------------------------|
B|-1010101010--9999----3333333333--|
G|---------------------------------|
D|---------------------------------|
A|---------------------------------|
E|---------------------------------|

                       Bridge

e|-----99999999--55555555--99999999--1212121212--1010101010-9-10-12--|
B|-------------------------------------------------------------------|
G|-------------------------------------------------------------------|
D|-------------------------------------------------------------------|
A|-------------------------------------------------------------------|
E|-------------------------------------------------------------------|
                          Chorus
                          four times
e|-----99999-10-9-7-9--------------------------|
B|----------------------77777-/-10-10-/-12-12--|
G|---------------------------------------------|
D|---------------------------------------------|
A|---------------------------------------------|
E|---------------------------------------------|

                         Solo
e|----------------------------------------------------------------|
B|-1010101010--999-------------------1010101010--999--------------|
G|-------------------77777-6-7-------------------------77777-6-7--|
D|----------------------------------------------------------------|
A|----------------------------------------------------------------|
E|----------------------------------------------------------------|

                             Bridge

e|-----99999999--55555555--99999999--1212121212--1010101010-9-10-12--|
B|-------------------------------------------------------------------|
G|-------------------------------------------------------------------|
D|-------------------------------------------------------------------|
A|-------------------------------------------------------------------|
E|-------------------------------------------------------------------|

                               Chorus
e|-----99999-10-9-7-9--------------------------|
B|----------------------77777-/-10-10-/-12-12--|
G|---------------------------------------------|
D|---------------------------------------------|
A|---------------------------------------------|
E|---------------------------------------------|

                                Solo

e|--------------------------------------------9----------|
B|--10101010-12-10-9-10-----1010101010--1212-----12--10--|
G|-------------------------------------------------------|
D|-------------------------------------------------------|
A|-------------------------------------------------------|
E|-------------------------------------------------------|

e|--------------------------------------------9----------|
B|--10101010-12-10-9-10-----1010101010--1212-----12--10--|
G|-------------------------------------------------------|
D|-------------------------------------------------------|
A|-------------------------------------------------------|
E|-------------------------------------------------------|

e|----99999999--121212121212-10--99999999-/17-19-17--|
B|---------------------------------------------------|
G|---------------------------------------------------|
D|---------------------------------------------------|
A|---------------------------------------------------|
E|---------------------------------------------------|

| /  slide up
| \  slide down
| h  hammer-on
| p  pull-off
| ~  vibrato
| +  harmonic
| x  Mute note
===============================================================================
00:00 / 00:00
Otros videos de esta canción
Repetir
Otros videos de esta canción
Compositor no encontrado.
24 exhibiciones
    • ½ Tono
    • A
    • Bb
    • B
    • C
    • Db
    • D
    • Eb
    • E
    • F
    • F#
    • G
    • Ab
  • Agregar a la lista
    00:00 / 00:00
    OK