Cifra Club

Paint it Black

The Rolling Stones

Cifrado: Principal (guitarra y guitarra eléctrica)
Selo Cifra Club: esta cifra foi revisada para atender aos critérios oficiais da nossa Equipe de Qualidade.
tono: Fm (forma dos acordes no tom de Dm) Capotraste na 3ª casa
[Intro] Dm

[Tab - Intro]

E|-----0---1---3---1----0-------------------|
B|-3-------------------------3--2--3/5-5----|
G|------------------------2-----------------|
D|---0---0---0---0---0----------------------|
A|------------------------------------------|
E|------------------------------------------|

E|-------0----------------------------------|
B|-0h2h3---3p2p0-2--------------------------|
G|------------------------------------------|
D|------------------------------------------|
A|------------------------------------------|
E|------------------------------------------|

[Primeira Parte]

[Tab - Riff]

E|---0-1-3-1-0------------------------------|
B|-3-----------3-3h5p3\2-2--3-5-3h5p3-2-0h2-|
G|------------------------------------------|
D|------------------------------------------| (2x)
A|------------------------------------------|
E|------------------------------------------|

Dm (Riff)                 
   I see a red door and
   A7
I want it painted black
Dm                    
   No colors anymore
   A7
I want them to turn black

[Refrão 1]

Dm    C       F          C 
   I see the girls walk by
        Dm                
Dressed in their summer clothes
   C       F       C           
I have to turn my head
   G                A7 
Until the darkness goes

[Segunda Parte]

Dm (Riff)                       
   I see a line of cars and
  A7
They're all painted black
Dm                           
   With flowers and my love
      A7
Both never to come back

[Refrão 2]

Dm    C          F          C                
   I see people turn their heads
      Dm
And quickly look away
        C        F   
Like a new born baby
C        G             A7
It just happens every day

[Terceira Parte]

Dm (Riff)                      
   I look inside myself
     A7
And see my heart is black
Dm                      
   I see my red door
        A7
I must have it painted black

[Refrão 3]

Dm        C         F     C  
   Maybe then I'll fade away
     Dm
And not have to face the fact
         C     F     C
It's not easy facing up
      G                    A7
When your whole world is black

[Quarta Parte]

Dm (Riff)                        
   No more will my green sea
    A7
Go turn a deeper blue
Dm                            
   I could not foresee this
  A7
Thing happening to you

[Refrão 4]

Dm    C       F     C    
   If I look hard enough
   Dm
Into the setting sun
    C          F         C    
My love will laugh with me
   G                A7
Before the morning comes

[Primeira Parte]

Dm (Riff)                   
   I see a red door and
   A7
I want it painted black
Dm                    
   No colors anymore
   A7
I want them to turn black

[Refrão 1]

Dm    C       F          C 
   I see the girls walk by
        Dm                
Dressed in their summer clothes
   C       F       C           
I have to turn my head
   G                A7 
Until the darkness goes

[Solo] Dm  A7  Dm  A7 
       Dm  A7  Dm  A7 

[Tab - Solo]

E|---0-1-3-1-0------------------------------|
B|-3-----------3-3h5p3\2-2--3-5-3h5p3-2-0h2-|
G|------------------------------------------|
D|------------------------------------------| (4x)
A|------------------------------------------|
E|------------------------------------------|

[[Quinta Parte]

                 Dm
I wanna see you painted, painted black
  A7
Black as night, black as coal
       Dm
Don't wanna see the sun
        A7
Flying high above the sky
                Dm
I wanna see it painted, painted, painted
          A7
Painted black, yeah!

[Final] Dm  A7  Dm  A7 
        Dm  A7  Dm  A7  Dm
Otros videos de esta canción
    139.780 exhibiciones
      • ½ Tono
      • Am
      • Bbm
      • Bm
      • Cm
      • C#m
      • Dm
      • Ebm
      • Em
      • Fm
      • F#m
      • Gm
      • G#m
    • Agregar a la lista

    Afinação da cifra

    Afinador online

      Ops (: Contenido disponible solo en portugués.
      OK