Cifra Club

Born To Be Bad

The Runaways

Cifrado: Principal (guitarra y guitarra eléctrica)
tono: A
Intro e verso:
E|-------------------------------------------------------|
B|-------------------------------------------------------|
G|-----6-----6-----4-----4-----7------7-----6-----6------|
D|----7-7---7-7---5-5---5-5---9--9---9-9---7-7---7-7-----|
A|---7---7-7---7-5---5-5---5-9----9-9---9-7---7-7---7----|
E|--5-----5-----3-----3-----7------7-----5-----5---------|

REFRÂO:
E|----------------------------------------------|
B|----------------------------------------------|
G|----------------------------------------------|
D|---7----7-7--6----6-6--5----5-5-5--2-5-6------| X2
A|---7----7-7--6----6-6--5----5-5-5--2-5-6------|
E|---5----5-5--4----4-4--3----3-3-3--0-3-4------|

->VERSOS

->REFRÂO

Riff 2:

E|---------------------------------------------------------|
B|---------------------------------------------------------|
G|---------------------------------------------------------|
D|---7-----5-----7-7/5--5----2-5----5-9----9-9/7-7-----5-7-|
A|---7-----5-----7-7/5--5----2-5----5-9----9-9/7-7-----5-7-|
E|---5-----3-----5-5/3--3----0-3----3-7----7-7/5-5-----3-5-|
Composición de George Thorogood / Kim Fowley / Michael Steele / Sandy West
Colaboración y revisión:
  • Veh. F
102 vistas
    • ½ Tono
    • A
    • Bb
    • B
    • C
    • Db
    • D
    • Eb
    • E
    • F
    • F#
    • G
    • Ab
  • Agregar a la lista

    0 comentarios

    Ver todos los comentarios

    ¿Lograste tocar?

    1 Tocaron 0 Aún no

    ¡Graba un video tocando Born To Be Bad y envíanoslo!

    00:00 / 00:00
    Otros videos de esta canción
    Repetir Calidad Automático
    Otros videos de esta canción
    00:00 / 00:00
    Automático
    OK